  0
SECTION
  2
HEADER
  9
$ACADVER
  1
AC1015
  9
$ACADMAINTVER
 70
    20
  9
$DWGCODEPAGE
  3
ANSI_1252
  9
$INSBASE
 10
0.0
 20
0.0
 30
0.0
  9
$EXTMIN
 10
-44.85831163670991
 20
-249.8219140822375
 30
0.0
  9
$EXTMAX
 10
1205.021540147777
 20
70.17808591776248
 30
0.0
  9
$LIMMIN
 10
0.0
 20
0.0
  9
$LIMMAX
 10
420.0
 20
297.0
  9
$ORTHOMODE
 70
     1
  9
$REGENMODE
 70
     1
  9
$FILLMODE
 70
     1
  9
$QTEXTMODE
 70
     0
  9
$MIRRTEXT
 70
     0
  9
$LTSCALE
 40
1.0
  9
$ATTMODE
 70
     1
  9
$TEXTSIZE
 40
2.5
  9
$TRACEWID
 40
1.0
  9
$TEXTSTYLE
  7
Standard
  9
$CLAYER
  8
ISO-25
  9
$CELTYPE
  6
ByLayer
  9
$CECOLOR
 62
   256
  9
$CELTSCALE
 40
1.0
  9
$DISPSILH
 70
     0
  9
$DIMSCALE
 40
1.0
  9
$DIMASZ
 40
2.5
  9
$DIMEXO
 40
0.625
  9
$DIMDLI
 40
3.75
  9
$DIMRND
 40
0.0
  9
$DIMDLE
 40
0.0
  9
$DIMEXE
 40
1.25
  9
$DIMTP
 40
0.0
  9
$DIMTM
 40
0.0
  9
$DIMTXT
 40
2.5
  9
$DIMCEN
 40
2.5
  9
$DIMTSZ
 40
0.0
  9
$DIMTOL
 70
     0
  9
$DIMLIM
 70
     0
  9
$DIMTIH
 70
     0
  9
$DIMTOH
 70
     0
  9
$DIMSE1
 70
     0
  9
$DIMSE2
 70
     0
  9
$DIMTAD
 70
     1
  9
$DIMZIN
 70
     8
  9
$DIMBLK
  1

  9
$DIMASO
 70
     1
  9
$DIMSHO
 70
     1
  9
$DIMPOST
  1

  9
$DIMAPOST
  1

  9
$DIMALT
 70
     0
  9
$DIMALTD
 70
     3
  9
$DIMALTF
 40
0.03937007874016
  9
$DIMLFAC
 40
1.0
  9
$DIMTOFL
 70
     1
  9
$DIMTVP
 40
0.0
  9
$DIMTIX
 70
     0
  9
$DIMSOXD
 70
     0
  9
$DIMSAH
 70
     0
  9
$DIMBLK1
  1

  9
$DIMBLK2
  1

  9
$DIMSTYLE
  2
ISO-25
  9
$DIMCLRD
 70
     0
  9
$DIMCLRE
 70
     0
  9
$DIMCLRT
 70
     0
  9
$DIMTFAC
 40
1.0
  9
$DIMGAP
 40
0.625
  9
$DIMJUST
 70
     0
  9
$DIMSD1
 70
     0
  9
$DIMSD2
 70
     0
  9
$DIMTOLJ
 70
     0
  9
$DIMTZIN
 70
     8
  9
$DIMALTZ
 70
     0
  9
$DIMALTTZ
 70
     0
  9
$DIMUPT
 70
     0
  9
$DIMDEC
 70
     2
  9
$DIMTDEC
 70
     2
  9
$DIMALTU
 70
     2
  9
$DIMALTTD
 70
     3
  9
$DIMTXSTY
  7
Standard
  9
$DIMAUNIT
 70
     0
  9
$DIMADEC
 70
     0
  9
$DIMALTRND
 40
0.0
  9
$DIMAZIN
 70
     0
  9
$DIMDSEP
 70
    44
  9
$DIMATFIT
 70
     3
  9
$DIMFRAC
 70
     0
  9
$DIMLDRBLK
  1

  9
$DIMLUNIT
 70
     2
  9
$DIMLWD
 70
    -2
  9
$DIMLWE
 70
    -2
  9
$DIMTMOVE
 70
     0
  9
$LUNITS
 70
     2
  9
$LUPREC
 70
     4
  9
$SKETCHINC
 40
1.0
  9
$FILLETRAD
 40
0.0
  9
$AUNITS
 70
     0
  9
$AUPREC
 70
     0
  9
$MENU
  1
.
  9
$ELEVATION
 40
0.0
  9
$PELEVATION
 40
0.0
  9
$THICKNESS
 40
0.0
  9
$LIMCHECK
 70
     0
  9
$CHAMFERA
 40
0.0
  9
$CHAMFERB
 40
0.0
  9
$CHAMFERC
 40
0.0
  9
$CHAMFERD
 40
0.0
  9
$SKPOLY
 70
     0
  9
$TDCREATE
 40
2454559.610192616
  9
$TDUCREATE
 40
2454559.568525949
  9
$TDUPDATE
 40
2454788.622817743
  9
$TDUUPDATE
 40
2454788.581151077
  9
$TDINDWG
 40
0.0821896759
  9
$TDUSRTIMER
 40
0.0821896759
  9
$USRTIMER
 70
     1
  9
$ANGBASE
 50
0.0
  9
$ANGDIR
 70
     0
  9
$PDMODE
 70
     0
  9
$PDSIZE
 40
0.0
  9
$PLINEWID
 40
0.0
  9
$SPLFRAME
 70
     0
  9
$SPLINETYPE
 70
     6
  9
$SPLINESEGS
 70
     8
  9
$HANDSEED
  5
519
  9
$SURFTAB1
 70
     6
  9
$SURFTAB2
 70
     6
  9
$SURFTYPE
 70
     6
  9
$SURFU
 70
     6
  9
$SURFV
 70
     6
  9
$UCSBASE
  2

  9
$UCSNAME
  2

  9
$UCSORG
 10
0.0
 20
0.0
 30
0.0
  9
$UCSXDIR
 10
1.0
 20
0.0
 30
0.0
  9
$UCSYDIR
 10
0.0
 20
1.0
 30
0.0
  9
$UCSORTHOREF
  2

  9
$UCSORTHOVIEW
 70
     0
  9
$UCSORGTOP
 10
0.0
 20
0.0
 30
0.0
  9
$UCSORGBOTTOM
 10
0.0
 20
0.0
 30
0.0
  9
$UCSORGLEFT
 10
0.0
 20
0.0
 30
0.0
  9
$UCSORGRIGHT
 10
0.0
 20
0.0
 30
0.0
  9
$UCSORGFRONT
 10
0.0
 20
0.0
 30
0.0
  9
$UCSORGBACK
 10
0.0
 20
0.0
 30
0.0
  9
$PUCSBASE
  2

  9
$PUCSNAME
  2

  9
$PUCSORG
 10
0.0
 20
0.0
 30
0.0
  9
$PUCSXDIR
 10
1.0
 20
0.0
 30
0.0
  9
$PUCSYDIR
 10
0.0
 20
1.0
 30
0.0
  9
$PUCSORTHOREF
  2

  9
$PUCSORTHOVIEW
 70
     0
  9
$PUCSORGTOP
 10
0.0
 20
0.0
 30
0.0
  9
$PUCSORGBOTTOM
 10
0.0
 20
0.0
 30
0.0
  9
$PUCSORGLEFT
 10
0.0
 20
0.0
 30
0.0
  9
$PUCSORGRIGHT
 10
0.0
 20
0.0
 30
0.0
  9
$PUCSORGFRONT
 10
0.0
 20
0.0
 30
0.0
  9
$PUCSORGBACK
 10
0.0
 20
0.0
 30
0.0
  9
$USERI1
 70
     0
  9
$USERI2
 70
     0
  9
$USERI3
 70
     0
  9
$USERI4
 70
     0
  9
$USERI5
 70
     0
  9
$USERR1
 40
0.0
  9
$USERR2
 40
0.0
  9
$USERR3
 40
0.0
  9
$USERR4
 40
0.0
  9
$USERR5
 40
0.0
  9
$WORLDVIEW
 70
     1
  9
$SHADEDGE
 70
     3
  9
$SHADEDIF
 70
    70
  9
$TILEMODE
 70
     1
  9
$MAXACTVP
 70
    64
  9
$PINSBASE
 10
0.0
 20
0.0
 30
0.0
  9
$PLIMCHECK
 70
     0
  9
$PEXTMIN
 10
1.000000000000000E+20
 20
1.000000000000000E+20
 30
1.000000000000000E+20
  9
$PEXTMAX
 10
-1.000000000000000E+20
 20
-1.000000000000000E+20
 30
-1.000000000000000E+20
  9
$PLIMMIN
 10
0.0
 20
0.0
  9
$PLIMMAX
 10
420.0
 20
297.0
  9
$UNITMODE
 70
     0
  9
$VISRETAIN
 70
     1
  9
$PLINEGEN
 70
     0
  9
$PSLTSCALE
 70
     1
  9
$TREEDEPTH
 70
  3020
  9
$CMLSTYLE
  2
Standard
  9
$CMLJUST
 70
     0
  9
$CMLSCALE
 40
20.0
  9
$PROXYGRAPHICS
 70
     1
  9
$MEASUREMENT
 70
     1
  9
$CELWEIGHT
370
    -1
  9
$ENDCAPS
280
     0
  9
$JOINSTYLE
280
     0
  9
$LWDISPLAY
290
     0
  9
$INSUNITS
 70
     4
  9
$HYPERLINKBASE
  1

  9
$STYLESHEET
  1

  9
$XEDIT
290
     1
  9
$CEPSNTYPE
380
     0
  9
$PSTYLEMODE
290
     1
  9
$FINGERPRINTGUID
  2
{F832802F-1E61-44F0-8C69-2EBEA383F6B5}
  9
$VERSIONGUID
  2
{84355768-93ED-4514-9416-6CAD0DDA853E}
  9
$EXTNAMES
290
     1
  9
$PSVPSCALE
 40
0.0
  9
$OLESTARTUP
290
     0
  0
ENDSEC
  0
SECTION
  2
CLASSES
  0
CLASS
  1
ACDBDICTIONARYWDFLT
  2
AcDbDictionaryWithDefault
  3
ObjectDBX Classes
 90
        0
280
     0
281
     0
  0
CLASS
  1
MATERIAL
  2
AcDbMaterial
  3
ObjectDBX Classes
 90
     1153
280
     0
281
     0
  0
CLASS
  1
VISUALSTYLE
  2
AcDbVisualStyle
  3
ObjectDBX Classes
 90
     4095
280
     0
281
     0
  0
CLASS
  1
TABLESTYLE
  2
AcDbTableStyle
  3
ObjectDBX Classes
 90
     4095
280
     0
281
     0
  0
CLASS
  1
DICTIONARYVAR
  2
AcDbDictionaryVar
  3
ObjectDBX Classes
 90
        0
280
     0
281
     0
  0
CLASS
  1
ACAD_EVALUATION_GRAPH
  2
AcDbEvalGraph
  3
ObjectDBX Classes
 90
     1153
280
     0
281
     0
  0
CLASS
  1
BLOCKBASEPOINTPARAMETER
  2
AcDbBlockBasepointParameter
  3
ObjectDBX Classes
 90
     1153
280
     0
281
     0
  0
CLASS
  1
ACDB_DYNAMICBLOCKPURGEPREVENTER_VERSION
  2
AcDbDynamicBlockPurgePreventer
  3
ObjectDBX Classes
 90
     1153
280
     0
281
     0
  0
CLASS
  1
ACDB_BLOCKREPRESENTATION_DATA
  2
AcDbBlockRepresentationData
  3
ObjectDBX Classes
 90
     1153
280
     0
281
     0
  0
CLASS
  1
ACAECUSTOBJ
  2
AcAeEditorObj
  3
AcAeEditorObj
 90
    33792
280
     0
281
     0
  0
CLASS
  1
BASEPOINTPARAMETERENTITY
  2
AcDbBlockBasepointParameterEntity
  3
ObjectDBX Classes
 90
    33793
280
     0
281
     1
  0
CLASS
  1
ACAEEEMGROBJ
  2
AcAeEEMgrObj
  3
AcAeEEMgrObj
 90
    33792
280
     0
281
     0
  0
CLASS
  1
ACDBPLACEHOLDER
  2
AcDbPlaceHolder
  3
ObjectDBX Classes
 90
        0
280
     0
281
     0
  0
CLASS
  1
LAYOUT
  2
AcDbLayout
  3
ObjectDBX Classes
 90
        0
280
     0
281
     0
  0
ENDSEC
  0
SECTION
  2
TABLES
  0
TABLE
  2
VPORT
  5
8
102
{ACAD_XDICTIONARY
360
370
102
}
330
0
100
AcDbSymbolTable
 70
     1
  0
VPORT
  5
28
330
8
100
AcDbSymbolTableRecord
100
AcDbViewportTableRecord
  2
*Active
 70
     0
 10
0.0
 20
0.0
 11
1.0
 21
1.0
 12
561.0588173513082
 22
-43.88831884009414
 13
0.0
 23
0.0
 14
10.0
 24
10.0
 15
100.0
 25
100.0
 16
0.0
 26
0.0
 36
1.0
 17
0.0
 27
0.0
 37
0.0
 40
948.6250360436761
 41
1.486486486486486
 42
50.0
 43
0.0
 44
0.0
 50
0.0
 51
0.0
 71
     0
 72
  1000
 73
     1
 74
     2
 75
     0
 76
     0
 77
     0
 78
     0
281
     0
 65
     1
110
0.0
120
0.0
130
0.0
111
1.0
121
0.0
131
0.0
112
0.0
122
1.0
132
0.0
 79
     0
146
0.0
  0
ENDTAB
  0
TABLE
  2
LTYPE
  5
5
330
0
100
AcDbSymbolTable
 70
     4
  0
LTYPE
  5
29
330
5
100
AcDbSymbolTableRecord
100
AcDbLinetypeTableRecord
  2
ByBlock
 70
     0
  3

 72
    65
 73
     0
 40
0.0
  0
LTYPE
  5
2A
330
5
100
AcDbSymbolTableRecord
100
AcDbLinetypeTableRecord
  2
ByLayer
 70
     0
  3

 72
    65
 73
     0
 40
0.0
  0
LTYPE
  5
2B
330
5
100
AcDbSymbolTableRecord
100
AcDbLinetypeTableRecord
  2
Continuous
 70
     0
  3
Solid line
 72
    65
 73
     0
 40
0.0
  0
LTYPE
  5
A6
330
5
100
AcDbSymbolTableRecord
100
AcDbLinetypeTableRecord
  2
STRICHPUNKT2
 70
     0
  3
_._._._._._._._._._._._._._._._._._._._._._._._
 72
    65
 73
     4
 40
0.5
 49
0.25
 74
     0
 49
-0.125
 74
     0
 49
0.0
 74
     0
 49
-0.125
 74
     0
  0
LTYPE
  5
A7
330
5
100
AcDbSymbolTableRecord
100
AcDbLinetypeTableRecord
  2
CENTER
 70
     0
  3
__ . __ . __ . __ . __ . __ . __ . __ . __ . __
 72
    65
 73
     4
 40
1.0
 49
0.5
 74
     0
 49
-0.25
 74
     0
 49
0.0
 74
     0
 49
-0.25
 74
     0
  0
LTYPE
  5
E5
330
5
100
AcDbSymbolTableRecord
100
AcDbLinetypeTableRecord
  2
HIDDEN
 70
     0
  3
__ __ __ __ __ __ __ __ __ __ __ __ __ __ __ __
 72
    65
 73
     2
 40
0.375
 49
0.25
 74
     0
 49
-0.125
 74
     0
  0
ENDTAB
  0
TABLE
  2
LAYER
  5
2
330
0
100
AcDbSymbolTable
 70
    10
  0
LAYER
  5
25
330
2
100
AcDbSymbolTableRecord
100
AcDbLayerTableRecord
  2
0
 70
     0
 62
     7
  6
Continuous
370
    -3
390
F
  0
LAYER
  5
A8
330
2
100
AcDbSymbolTableRecord
100
AcDbLayerTableRecord
  2
Defpoints
 70
     0
 62
     7
  6
Continuous
290
     0
370
    -3
390
F
  0
LAYER
  5
A9
330
2
100
AcDbSymbolTableRecord
100
AcDbLayerTableRecord
  2
X_SC_cent
 70
     0
 62
     8
  6
STRICHPUNKT2
370
    -3
390
F
  0
LAYER
  5
AA
330
2
100
AcDbSymbolTableRecord
100
AcDbLayerTableRecord
  2
018_CENT
 70
     0
 62
     1
  6
CENTER
370
    -3
390
F
  0
LAYER
  5
E6
330
2
100
AcDbSymbolTableRecord
100
AcDbLayerTableRecord
  2
ST_CENT
 70
     0
 62
   161
  6
CENTER
370
    -3
390
F
  0
LAYER
  5
E7
330
2
100
AcDbSymbolTableRecord
100
AcDbLayerTableRecord
  2
ST_HIDD
 70
     0
 62
   150
  6
HIDDEN
370
    -3
390
F
  0
LAYER
  5
12B
330
2
100
AcDbSymbolTableRecord
100
AcDbLayerTableRecord
  2
025_CENT
 70
     0
 62
     9
  6
CENTER
370
    -3
390
F
  0
LAYER
  5
12C
330
2
100
AcDbSymbolTableRecord
100
AcDbLayerTableRecord
  2
018_POINT
 70
     0
 62
     7
  6
Continuous
370
    -3
390
F
  0
LAYER
  5
14E
330
2
100
AcDbSymbolTableRecord
100
AcDbLayerTableRecord
  2
ST_EDGE
 70
     0
 62
   161
  6
Continuous
370
    -3
390
F
  0
LAYER
  5
426
330
2
100
AcDbSymbolTableRecord
100
AcDbLayerTableRecord
  2
ISO-25
 70
     0
 62
     9
  6
Continuous
370
    -3
390
F
  0
ENDTAB
  0
TABLE
  2
STYLE
  5
3
330
0
100
AcDbSymbolTable
 70
     1
  0
STYLE
  5
26
330
3
100
AcDbSymbolTableRecord
100
AcDbTextStyleTableRecord
  2
Standard
 70
     0
 40
0.0
 41
1.0
 50
0.0
 71
     0
 42
2.5
  3
ARIALN.TTF
  4

1001
ACAD
1000
Arial Narrow
1071
       34
  0
ENDTAB
  0
TABLE
  2
VIEW
  5
6
330
0
100
AcDbSymbolTable
 70
     0
  0
ENDTAB
  0
TABLE
  2
UCS
  5
7
330
0
100
AcDbSymbolTable
 70
     0
  0
ENDTAB
  0
TABLE
  2
APPID
  5
9
330
0
100
AcDbSymbolTable
 70
     9
  0
APPID
  5
27
330
9
100
AcDbSymbolTableRecord
100
AcDbRegAppTableRecord
  2
ACAD
 70
     0
  0
APPID
  5
AC
330
9
100
AcDbSymbolTableRecord
100
AcDbRegAppTableRecord
  2
ANTLOG
 70
     0
  0
APPID
  5
AD
330
9
100
AcDbSymbolTableRecord
100
AcDbRegAppTableRecord
  2
AcDbBlockRepETag
 70
     0
  0
APPID
  5
AE
330
9
100
AcDbSymbolTableRecord
100
AcDbRegAppTableRecord
  2
AcDbDynamicBlockTrueName
 70
     0
  0
APPID
  5
AF
330
9
100
AcDbSymbolTableRecord
100
AcDbRegAppTableRecord
  2
AcDbDynamicBlockGUID
 70
     0
  0
APPID
  5
12D
330
9
100
AcDbSymbolTableRecord
100
AcDbRegAppTableRecord
  2
AcDbBlockRepBTag
 70
     0
  0
APPID
  5
19D
330
9
100
AcDbSymbolTableRecord
100
AcDbRegAppTableRecord
  2
ACAUTHENVIRON
 70
     0
  0
APPID
  5
1A2
330
9
100
AcDbSymbolTableRecord
100
AcDbRegAppTableRecord
  2
ACAD_EXEMPT_FROM_CAD_STANDARDS
 70
     0
  0
APPID
  5
382
330
9
100
AcDbSymbolTableRecord
100
AcDbRegAppTableRecord
  2
ACAD_DSTYLE_DIMJOGGED_JOGANGLE_SYMBOL
 70
     0
  0
ENDTAB
  0
TABLE
  2
DIMSTYLE
  5
A
330
0
100
AcDbSymbolTable
 70
     2
100
AcDbDimStyleTable
 71
     1
340
3F
  0
DIMSTYLE
105
3F
330
A
100
AcDbSymbolTableRecord
100
AcDbDimStyleTableRecord
  2
ISO-25
 70
     0
 41
2.5
 42
0.625
 43
3.75
 44
1.25
 73
     0
 74
     0
 77
     1
 78
     8
140
2.5
141
2.5
143
0.03937007874016
147
0.625
171
     3
172
     1
271
     2
272
     2
274
     3
278
    44
283
     0
284
     8
340
26
1001
ACAD_DSTYLE_DIMJOGGED_JOGANGLE_SYMBOL
1070
   384
1040
1.570796326794896
  0
DIMSTYLE
105
AB
330
A
100
AcDbSymbolTableRecord
100
AcDbDimStyleTableRecord
  2
Standard
 70
     0
340
26
  0
ENDTAB
  0
TABLE
  2
BLOCK_RECORD
  5
1
330
0
100
AcDbSymbolTable
 70
    23
  0
BLOCK_RECORD
  5
37
330
1
100
AcDbSymbolTableRecord
100
AcDbBlockTableRecord
  2
*Model_Space
340
3A
  0
BLOCK_RECORD
  5
33
330
1
100
AcDbSymbolTableRecord
100
AcDbBlockTableRecord
  2
*Paper_Space
340
36
  0
BLOCK_RECORD
  5
3B
330
1
100
AcDbSymbolTableRecord
100
AcDbBlockTableRecord
  2
*Paper_Space0
340
3E
  0
BLOCK_RECORD
  5
5E
330
1
100
AcDbSymbolTableRecord
100
AcDbBlockTableRecord
  2
DIN933_M8x60
340
0
102
{BLKREFS
331
A1
331
149
331
147
102
}
  0
BLOCK_RECORD
  5
7F
102
{ACAD_XDICTIONARY
360
80
102
}
330
1
100
AcDbSymbolTableRecord
100
AcDbBlockTableRecord
  2
*U2
340
0
102
{BLKREFS
331
A2
331
148
331
14A
331
320
331
337
331
364
102
}
1001
AcDbDynamicBlockTrueName
1000
H0601112
1001
AcDbDynamicBlockGUID
1000
{2C21A911-BD7C-4FC1-B1CC-7DF919758093}
1001
AcDbBlockRepETag
1070
     1
1071
        7
1001
ACAD
1000
DesignCenter Data
1002
{
1070
     1
1070
     4
1002
}
  0
BLOCK_RECORD
  5
8D
102
{ACAD_XDICTIONARY
360
8E
102
}
330
1
100
AcDbSymbolTableRecord
100
AcDbBlockTableRecord
  2
H0601115
340
0
102
{BLKREFS
331
A3
331
321
331
338
331
365
102
}
1001
AcDbDynamicBlockGUID
1000
{A47C4EED-BC86-48BC-A425-3D09E9BFEFE0}
1001
AcDbBlockRepETag
1070
     1
1071
        1
1001
ACAD
1000
DesignCenter Data
1002
{
1070
     1
1070
     4
1002
}
  0
BLOCK_RECORD
  5
92
102
{ACAD_XDICTIONARY
360
93
102
}
330
1
100
AcDbSymbolTableRecord
100
AcDbBlockTableRecord
  2
*U4
340
0
102
{BLKREFS
331
A4
331
14B
331
14C
331
186
102
}
1001
AcDbDynamicBlockTrueName
1000
H0601108
1001
AcDbDynamicBlockGUID
1000
{86B176CF-2670-4510-BA88-E9316A4C8612}
1001
AcDbBlockRepETag
1070
     1
1071
        2
1001
ACAD
1000
DesignCenter Data
1002
{
1070
     1
1070
     4
1002
}
  0
BLOCK_RECORD
  5
9B
102
{ACAD_XDICTIONARY
360
9C
102
}
330
1
100
AcDbSymbolTableRecord
100
AcDbBlockTableRecord
  2
*U5
340
0
310
2800000020000000200000000100080000000000000400000000000000000000000000000000000000000000000080000080000000808000800000008000800080800000C0C0C000C0DCC000F0CAA6000020400000206000002080000020A0000020C0000020E00000400000004020000040400000406000004080000040A0
310
000040C0000040E00000600000006020000060400000606000006080000060A0000060C0000060E00000800000008020000080400000806000008080000080A0000080C0000080E00000A0000000A0200000A0400000A0600000A0800000A0A00000A0C00000A0E00000C0000000C0200000C0400000C0600000C0800000C0
310
A00000C0C00000C0E00000E0000000E0200000E0400000E0600000E0800000E0A00000E0C00000E0E00040000000400020004000400040006000400080004000A0004000C0004000E00040200000402020004020400040206000402080004020A0004020C0004020E000404000004040200040404000404060004040800040
310
40A0004040C0004040E00040600000406020004060400040606000406080004060A0004060C0004060E00040800000408020004080400040806000408080004080A0004080C0004080E00040A0000040A0200040A0400040A0600040A0800040A0A00040A0C00040A0E00040C0000040C0200040C0400040C0600040C08000
310
40C0A00040C0C00040C0E00040E0000040E0200040E0400040E0600040E0800040E0A00040E0C00040E0E00080000000800020008000400080006000800080008000A0008000C0008000E00080200000802020008020400080206000802080008020A0008020C0008020E00080400000804020008040400080406000804080
310
008040A0008040C0008040E00080600000806020008060400080606000806080008060A0008060C0008060E00080800000808020008080400080806000808080008080A0008080C0008080E00080A0000080A0200080A0400080A0600080A0800080A0A00080A0C00080A0E00080C0000080C0200080C0400080C0600080C0
310
800080C0A00080C0C00080C0E00080E0000080E0200080E0400080E0600080E0800080E0A00080E0C00080E0E000C0000000C0002000C0004000C0006000C0008000C000A000C000C000C000E000C0200000C0202000C0204000C0206000C0208000C020A000C020C000C020E000C0400000C0402000C0404000C0406000C0
310
408000C040A000C040C000C040E000C0600000C0602000C0604000C0606000C0608000C060A000C060C000C060E000C0800000C0802000C0804000C0806000C0808000C080A000C080C000C080E000C0A00000C0A02000C0A04000C0A06000C0A08000C0A0A000C0A0C000C0A0E000C0C00000C0C02000C0C04000C0C06000
310
C0C08000C0C0A000F0FBFF00A4A0A000808080000000FF0000FF000000FFFF00FF000000FF00FF00FFFF0000FFFFFF0000000000000000000000000000000000000000000000000000000000000000000000000000000000000000000000000000000000000000000000000000000000000000000000000000000000000000
310
00000000000000000000000000000000000000000000000000000000000000000000000000000000000000000000000000000000000000000000000000000000A4000000000000000000000000000000000000000000000000000000000000ECECEC0000000000000000000000000000000000000000000000000000000000
310
ECECEC0000000000000000000000000000000000000000000000000000000000ECA4EC000000000000000000000000000000000000000000000000ECECECEC00ECA4EC00000000000000000000000000000000000000000000ECEC00000000ECECA4ECECEC00000000000000000000000000000000000000ECEC0000000000
310
00ECA4EC0000ECECECECECEC000000000000000000000000ECECEC0000EC00ECECECA4ECECEC000000000000ECECECEC00000000000000ECEC0000ECECECECECECECA4ECECEC000000000000000000EC00000000000000EC0000000000000000ECECA4ECECECEC000000000000000000EC0000000000ECEC00000000000000
310
0000ECA4EC0000ECECECECECECEC00EC00EC0000000000EC00000000000000000000ECA4EC0000000000000000ECECECECEC00000000ECEC00000000000000000000ECA4EC0000000000000000000000000000000000EC0000000000000000000000ECA4EC00000000000000000000000000000000ECEC0000000000000000
310
000000ECA4EC0000000000000000000000000000000000000000000000000000000000ECA4EC0000000000000000000000000000000000000000000000000000000000ECA4EC0000000000000000000000000000000000000000000000000000000000ECA4EC00000000000000000000000000000000000000000000000000
310
00000000ECA4EC0000000000000000000000000000000000000000000000EC0000ECECECECA4ECECEC0000ECEC0000000000000000000000000000000000ECEC00ECECECECA4ECECECEC00ECEC0000000000000000000000000000000000ECECECEC00ECECA4ECEC00ECECEC00000000000000000000000000000000000000
310
000000000000A400000000000000000000000000000000000000000000000000000000000000A400000000000000000000000000000000000000000000000000000000000000000000000000000000000000000000000000000000000000000000000000000000000000000000000000000000000000000000000000000000
310
0000000000000000000000000000000000000000000000000000000000000000000000000000000000000000000000000000000000000000
102
{BLKREFS
331
B5
102
}
1001
AcDbDynamicBlockTrueName
1000
H0601100
1001
AcDbDynamicBlockGUID
1000
{444F1B2E-8FEA-4D3C-A76C-689146811F5B}
1001
AcDbBlockRepETag
1070
     1
1071
        5
1001
ACAD
1000
DesignCenter Data
1002
{
1070
     1
1070
     4
1002
}
  0
BLOCK_RECORD
  5
B6
330
1
100
AcDbSymbolTableRecord
100
AcDbBlockTableRecord
  2
DIN963A_M8x60
340
0
102
{BLKREFS
331
31F
102
}
  0
BLOCK_RECORD
  5
D2
102
{ACAD_XDICTIONARY
360
19A
102
}
330
1
100
AcDbSymbolTableRecord
100
AcDbBlockTableRecord
  2
*U7
340
0
1001
AcDbDynamicBlockTrueName
1000
H0601109
1001
AcDbDynamicBlockGUID
1000
{E0EA53EF-C2C4-459C-B49A-8853167A76BD}
1001
AcDbBlockRepETag
1070
     1
1071
        4
1001
ACAD
1000
DesignCenter Data
1002
{
1070
     1
1070
     4
1002
}
  0
BLOCK_RECORD
  5
DD
102
{ACAD_XDICTIONARY
360
329
102
}
330
1
100
AcDbSymbolTableRecord
100
AcDbBlockTableRecord
  2
H0601103
340
0
310
2800000020000000200000000100080000000000000400000000000000000000000000000000000000000000000080000080000000808000800000008000800080800000C0C0C000C0DCC000F0CAA6000020400000206000002080000020A0000020C0000020E00000400000004020000040400000406000004080000040A0
310
000040C0000040E00000600000006020000060400000606000006080000060A0000060C0000060E00000800000008020000080400000806000008080000080A0000080C0000080E00000A0000000A0200000A0400000A0600000A0800000A0A00000A0C00000A0E00000C0000000C0200000C0400000C0600000C0800000C0
310
A00000C0C00000C0E00000E0000000E0200000E0400000E0600000E0800000E0A00000E0C00000E0E00040000000400020004000400040006000400080004000A0004000C0004000E00040200000402020004020400040206000402080004020A0004020C0004020E000404000004040200040404000404060004040800040
310
40A0004040C0004040E00040600000406020004060400040606000406080004060A0004060C0004060E00040800000408020004080400040806000408080004080A0004080C0004080E00040A0000040A0200040A0400040A0600040A0800040A0A00040A0C00040A0E00040C0000040C0200040C0400040C0600040C08000
310
40C0A00040C0C00040C0E00040E0000040E0200040E0400040E0600040E0800040E0A00040E0C00040E0E00080000000800020008000400080006000800080008000A0008000C0008000E00080200000802020008020400080206000802080008020A0008020C0008020E00080400000804020008040400080406000804080
310
008040A0008040C0008040E00080600000806020008060400080606000806080008060A0008060C0008060E00080800000808020008080400080806000808080008080A0008080C0008080E00080A0000080A0200080A0400080A0600080A0800080A0A00080A0C00080A0E00080C0000080C0200080C0400080C0600080C0
310
800080C0A00080C0C00080C0E00080E0000080E0200080E0400080E0600080E0800080E0A00080E0C00080E0E000C0000000C0002000C0004000C0006000C0008000C000A000C000C000C000E000C0200000C0202000C0204000C0206000C0208000C020A000C020C000C020E000C0400000C0402000C0404000C0406000C0
310
408000C040A000C040C000C040E000C0600000C0602000C0604000C0606000C0608000C060A000C060C000C060E000C0800000C0802000C0804000C0806000C0808000C080A000C080C000C080E000C0A00000C0A02000C0A04000C0A06000C0A08000C0A0A000C0A0C000C0A0E000C0C00000C0C02000C0C04000C0C06000
310
C0C08000C0C0A000F0FBFF00A4A0A000808080000000FF0000FF000000FFFF00FF000000FF00FF00FFFF0000FFFFFF0000000000000000000000000000000000000000000000000000000000000000000000000000000000000000000000000000000000000000000000000000000000000000000000000000000000000000
310
000000000000000000000000000000000000000000000000000000000000000000000000000000000000000000000000000000000000000000000000000000000000000000000000000000000000000000000000000000000000000000000000A4000000000000000000000000000000000000000000000000000000000000
310
FFA4FF000000000000000000000000000000000000000000000000FFFFFFFF00FFA4FF00000000000000000000000000000000000000000000FFFF00000000FFFFA4FFFFFF000000000000000000000000000000000000FFFFFF00000000FFFFFFA4FFFFFFFFFFFFFFFFFF000000000000000000000000FFFFFFFFFFFFFFFF
310
FFFFA4FFFFFF000000000000FFFFFFFF00000000000000FFFF0000FFFFFFFFFF00FFA4FFFFFFFF0000000000000000FF00000000000000FF0000000000000000FFFFA4FFFFFF00FFFFFFFFFFFF000000FF0000000000FFFF000000000000000000FFA4FF0000FFFFFFFFFFFF00FFFFFFFF0000000000FF0000000000000000
310
0000FFA4FF0000000000000000FFFFFFFFFF00000000FFFF00000000000000000000FFA4FF00000000000000000000000000000000FFFF0000000000000000000000FFA4FF0000000000000000000000000000000000000000000000000000000000FFA4FF0000000000000000000000000000000000000000000000000000
310
000000FFA4FF0000000000000000000000000000000000000000000000000000000000FFA4FF0000000000000000000000000000000000000000000000000000000000FFA4FF0000000000000000000000000000000000000000000000000000000000FFA4FF00000000000000000000000000000000000000000000000000
310
0000FF00FFA4FFFFFF00000000000000000000000000000000000000000000000000FF00FFFFFFFFFF00000000000000000000000000000000000000000000000000FFE0FFFFFFE0FF00000000000000000000000000000000000000000000000000E0FFFFFFFFFF0000000000000000000000000000000000000000000000
310
000000000000A4000000000000000000000000000000000000000000000000000000000000000000000000000000000000000000000000000000000000000000000000000000000000000000000000000000000000000000000000000000000000000000000000000000000000000000000000000000000000000000000000
310
0000000000000000000000000000000000000000000000000000000000000000000000000000000000000000000000000000000000000000
102
{BLKREFS
331
ED
102
}
1001
AcDbDynamicBlockGUID
1000
{89DFEA75-E616-468F-A475-F87E187D4F9D}
1001
AcDbBlockRepETag
1070
     1
1071
        4
1001
ACAD
1000
DesignCenter Data
1002
{
1070
     1
1070
     4
1002
}
  0
BLOCK_RECORD
  5
EE
102
{ACAD_XDICTIONARY
360
24C
102
}
330
1
100
AcDbSymbolTableRecord
100
AcDbBlockTableRecord
  2
*U9
340
0
1001
AcDbDynamicBlockTrueName
1000
H0601110
1001
AcDbDynamicBlockGUID
1000
{DE586323-487E-4EC2-AB1D-F2B5C4330B67}
1001
AcDbBlockRepETag
1070
     1
1071
        5
1001
ACAD
1000
DesignCenter Data
1002
{
1070
     1
1070
     4
1002
}
  0
BLOCK_RECORD
  5
103
102
{ACAD_XDICTIONARY
360
104
102
}
330
1
100
AcDbSymbolTableRecord
100
AcDbBlockTableRecord
  2
*U10
340
0
102
{BLKREFS
331
339
331
366
102
}
1001
AcDbDynamicBlockTrueName
1000
Zylinderschraube mit Schlitz
1001
AcDbDynamicBlockGUID
1000
{B00A9B87-4B32-4C3A-BB0E-C13FB1C18A25}
1001
AcDbBlockRepETag
1070
     1
1071
       33
  0
BLOCK_RECORD
  5
11A
102
{ACAD_XDICTIONARY
360
33A
102
}
330
1
100
AcDbSymbolTableRecord
100
AcDbBlockTableRecord
  2
*U11
340
0
310
2800000020000000200000000100080000000000000400000000000000000000000000000000000000000000000080000080000000808000800000008000800080800000C0C0C000C0DCC000F0CAA6000020400000206000002080000020A0000020C0000020E00000400000004020000040400000406000004080000040A0
310
000040C0000040E00000600000006020000060400000606000006080000060A0000060C0000060E00000800000008020000080400000806000008080000080A0000080C0000080E00000A0000000A0200000A0400000A0600000A0800000A0A00000A0C00000A0E00000C0000000C0200000C0400000C0600000C0800000C0
310
A00000C0C00000C0E00000E0000000E0200000E0400000E0600000E0800000E0A00000E0C00000E0E00040000000400020004000400040006000400080004000A0004000C0004000E00040200000402020004020400040206000402080004020A0004020C0004020E000404000004040200040404000404060004040800040
310
40A0004040C0004040E00040600000406020004060400040606000406080004060A0004060C0004060E00040800000408020004080400040806000408080004080A0004080C0004080E00040A0000040A0200040A0400040A0600040A0800040A0A00040A0C00040A0E00040C0000040C0200040C0400040C0600040C08000
310
40C0A00040C0C00040C0E00040E0000040E0200040E0400040E0600040E0800040E0A00040E0C00040E0E00080000000800020008000400080006000800080008000A0008000C0008000E00080200000802020008020400080206000802080008020A0008020C0008020E00080400000804020008040400080406000804080
310
008040A0008040C0008040E00080600000806020008060400080606000806080008060A0008060C0008060E00080800000808020008080400080806000808080008080A0008080C0008080E00080A0000080A0200080A0400080A0600080A0800080A0A00080A0C00080A0E00080C0000080C0200080C0400080C0600080C0
310
800080C0A00080C0C00080C0E00080E0000080E0200080E0400080E0600080E0800080E0A00080E0C00080E0E000C0000000C0002000C0004000C0006000C0008000C000A000C000C000C000E000C0200000C0202000C0204000C0206000C0208000C020A000C020C000C020E000C0400000C0402000C0404000C0406000C0
310
408000C040A000C040C000C040E000C0600000C0602000C0604000C0606000C0608000C060A000C060C000C060E000C0800000C0802000C0804000C0806000C0808000C080A000C080C000C080E000C0A00000C0A02000C0A04000C0A06000C0A08000C0A0A000C0A0C000C0A0E000C0C00000C0C02000C0C04000C0C06000
310
C0C08000C0C0A000F0FBFF00A4A0A000808080000000FF0000FF000000FFFF00FF000000FF00FF00FFFF0000FFFFFF0000000000000000000000000000000000000000000000000000000000000000000000000000000000000000000000000000000000000000000000000000000000000000000000000000000000000000
310
00000000000000000000000000000000000000000000000000000000000000000000000000000000000000000000000000000000000000000000000000000000A4000000000000000000000000000000000000000000000000000000000000ECECEC000000000000000000000000000000000000000000000000ECECECEC00
310
ECECEC00000000000000000000000000000000000000000000ECEC00000000ECECECECECEC000000000000000000000000000000000000ECECEC00000000ECECECECECECECECECECECECEC000000000000000000000000ECECECECECECECECECECECECECEC000000000000ECECECEC00000000000000ECEC0000ECECECECEC
310
ECECECECECECEC000000000000000000EC000000000000EC000000000000000000ECECECECECECECECECECECEC000000EC0000000000ECEC000000000000000000ECA4EC000000000000ECECECECECECEC0000000000EC00000000000000000000ECA4EC0000000000000000000000ECEC00000000ECEC0000000000000000
310
0000ECA4EC00000000000000000000000000000000ECEC0000000000000000000000ECA4EC0000000000000000000000000000000000000000000000000000000000ECA4EC0000000000000000000000000000000000000000000000000000000000ECA4EC0000000000000000000000000000000000000000000000000000
310
000000ECA4EC0000000000000000000000000000000000000000000000000000000000ECA4EC0000000000000000000000000000000000000000000000000000000000ECA4EC0000000000000000000000000000000000000000000000000000000000EC07EC00000000000000000000000000000000000000000000000000
310
00000000EC07EC000000000000000000000000000000000000000000000000ECEC00ECECECECECECEC00EC000000000000000000000000000000000000000000ECECECECECECECECEC00EC000000000000000000000000000000000000000000ECECECECEC07ECECECECEC0000000000000000000000000000000000000000
310
0000ECEC0000A40000ECEC000000000000000000000000000000000000000000000000000000A400000000000000000000000000000000000000000000000000000000000000000000000000000000000000000000000000000000000000000000000000000000000000000000000000000000000000000000000000000000
310
0000000000000000000000000000000000000000000000000000000000000000000000000000000000000000000000000000000000000000
1001
AcDbDynamicBlockTrueName
1000
H0601105
1001
AcDbDynamicBlockGUID
1000
{3B7897A5-C41D-441E-B17B-7B4E7FD65DF9}
1001
AcDbBlockRepETag
1070
     1
1071
        4
1001
ACAD
1000
DesignCenter Data
1002
{
1070
     1
1070
     4
1002
}
  0
BLOCK_RECORD
  5
134
102
{ACAD_XDICTIONARY
360
135
102
}
330
1
100
AcDbSymbolTableRecord
100
AcDbBlockTableRecord
  2
*U12
340
0
310
2800000020000000200000000100080000000000000400000000000000000000000000000000000000000000000080000080000000808000800000008000800080800000C0C0C000C0DCC000F0CAA6000020400000206000002080000020A0000020C0000020E00000400000004020000040400000406000004080000040A0
310
000040C0000040E00000600000006020000060400000606000006080000060A0000060C0000060E00000800000008020000080400000806000008080000080A0000080C0000080E00000A0000000A0200000A0400000A0600000A0800000A0A00000A0C00000A0E00000C0000000C0200000C0400000C0600000C0800000C0
310
A00000C0C00000C0E00000E0000000E0200000E0400000E0600000E0800000E0A00000E0C00000E0E00040000000400020004000400040006000400080004000A0004000C0004000E00040200000402020004020400040206000402080004020A0004020C0004020E000404000004040200040404000404060004040800040
310
40A0004040C0004040E00040600000406020004060400040606000406080004060A0004060C0004060E00040800000408020004080400040806000408080004080A0004080C0004080E00040A0000040A0200040A0400040A0600040A0800040A0A00040A0C00040A0E00040C0000040C0200040C0400040C0600040C08000
310
40C0A00040C0C00040C0E00040E0000040E0200040E0400040E0600040E0800040E0A00040E0C00040E0E00080000000800020008000400080006000800080008000A0008000C0008000E00080200000802020008020400080206000802080008020A0008020C0008020E00080400000804020008040400080406000804080
310
008040A0008040C0008040E00080600000806020008060400080606000806080008060A0008060C0008060E00080800000808020008080400080806000808080008080A0008080C0008080E00080A0000080A0200080A0400080A0600080A0800080A0A00080A0C00080A0E00080C0000080C0200080C0400080C0600080C0
310
800080C0A00080C0C00080C0E00080E0000080E0200080E0400080E0600080E0800080E0A00080E0C00080E0E000C0000000C0002000C0004000C0006000C0008000C000A000C000C000C000E000C0200000C0202000C0204000C0206000C0208000C020A000C020C000C020E000C0400000C0402000C0404000C0406000C0
310
408000C040A000C040C000C040E000C0600000C0602000C0604000C0606000C0608000C060A000C060C000C060E000C0800000C0802000C0804000C0806000C0808000C080A000C080C000C080E000C0A00000C0A02000C0A04000C0A06000C0A08000C0A0A000C0A0C000C0A0E000C0C00000C0C02000C0C04000C0C06000
310
C0C08000C0C0A000F0FBFF00A4A0A000808080000000FF0000FF000000FFFF00FF000000FF00FF00FFFF0000FFFFFF0000000000000000000000000000000000000000000000000000000000000000000000000000000000000000000000000000000000000000000000000000000000000000000000000000000000000000
310
00000000000000000000000000000000000000000000000000000000000000000000000000000000000000000000000000000000000000000000000000000000000000000000000000000000000000000000000000000000000000000000000000000000000000000000000000000000000000000000000000000000000000
310
00000000000000000000000000000000000000000000000000000000000000000000000000000000000000000000000000000000000000000000000000000000000000000000000000000000000000000000000000000000000000000000000000000000000000000000000000000000000000000000000000000000000000
310
00000000000000000000000000000000000000000000000000000000000000000000000000000000000000000000000000000000000000000000000000000000000000000000000000000000000000000000000000000000000000000000000000000000000000000000000000000000000000000000ECECECECECECECECEC
310
ECECECECECECECECECECECECECECECECEC0000000000EC0000000000000700000000000000000000000007000000000000EC000000ECECECECECECECECECECECECECECECECECECECECECECECECECECECECECEC0000000000000000000007000000000000000000000000070000000000000000000000000000000000000000
310
00000000000000000000000000000000000000000000000000000000000000000000000000000000000000000000000000000000000000000000000000000000000000000000000000000000000000000000000000000000000000000000000000000000000000000000000000000000000000000000000000000000000000
310
00000000000000000000000000000000000000000000000000000000000000000000000000000000000000000000000000000000000000000000000000000000000000000000000000000000000000000000000000000000000000000000000000000000000000000000000000000000000000000000000000000000000000
310
00000000000000000000000000000000000000000000000000000000000000000000000000000000000000000000000000000000000000000000000000000000000000000000000000000000000000000000000000000000000000000000000000000000000000000000000000000000000000000000000000000000000000
310
0000000000000000000000000000000000000000000000000000000000000000000000000000000000000000000000000000000000000000
102
{BLKREFS
331
146
331
2EF
102
}
1001
AcDbDynamicBlockTrueName
1000
H0601116
1001
AcDbDynamicBlockGUID
1000
{DE90D420-6C8D-4A14-B3B6-BC6FC801EB0E}
1001
AcDbBlockRepETag
1070
     1
1071
        8
1001
ACAD
1000
DesignCenter Data
1002
{
1070
     1
1070
     4
1002
}
  0
BLOCK_RECORD
  5
143
102
{ACAD_XDICTIONARY
360
144
102
}
330
1
100
AcDbSymbolTableRecord
100
AcDbBlockTableRecord
  2
H0601107
340
0
310
2800000020000000200000000100080000000000000400000000000000000000000000000000000000000000000080000080000000808000800000008000800080800000C0C0C000C0DCC000F0CAA6000020400000206000002080000020A0000020C0000020E00000400000004020000040400000406000004080000040A0
310
000040C0000040E00000600000006020000060400000606000006080000060A0000060C0000060E00000800000008020000080400000806000008080000080A0000080C0000080E00000A0000000A0200000A0400000A0600000A0800000A0A00000A0C00000A0E00000C0000000C0200000C0400000C0600000C0800000C0
310
A00000C0C00000C0E00000E0000000E0200000E0400000E0600000E0800000E0A00000E0C00000E0E00040000000400020004000400040006000400080004000A0004000C0004000E00040200000402020004020400040206000402080004020A0004020C0004020E000404000004040200040404000404060004040800040
310
40A0004040C0004040E00040600000406020004060400040606000406080004060A0004060C0004060E00040800000408020004080400040806000408080004080A0004080C0004080E00040A0000040A0200040A0400040A0600040A0800040A0A00040A0C00040A0E00040C0000040C0200040C0400040C0600040C08000
310
40C0A00040C0C00040C0E00040E0000040E0200040E0400040E0600040E0800040E0A00040E0C00040E0E00080000000800020008000400080006000800080008000A0008000C0008000E00080200000802020008020400080206000802080008020A0008020C0008020E00080400000804020008040400080406000804080
310
008040A0008040C0008040E00080600000806020008060400080606000806080008060A0008060C0008060E00080800000808020008080400080806000808080008080A0008080C0008080E00080A0000080A0200080A0400080A0600080A0800080A0A00080A0C00080A0E00080C0000080C0200080C0400080C0600080C0
310
800080C0A00080C0C00080C0E00080E0000080E0200080E0400080E0600080E0800080E0A00080E0C00080E0E000C0000000C0002000C0004000C0006000C0008000C000A000C000C000C000E000C0200000C0202000C0204000C0206000C0208000C020A000C020C000C020E000C0400000C0402000C0404000C0406000C0
310
408000C040A000C040C000C040E000C0600000C0602000C0604000C0606000C0608000C060A000C060C000C060E000C0800000C0802000C0804000C0806000C0808000C080A000C080C000C080E000C0A00000C0A02000C0A04000C0A06000C0A08000C0A0A000C0A0C000C0A0E000C0C00000C0C02000C0C04000C0C06000
310
C0C08000C0C0A000F0FBFF00A4A0A000808080000000FF0000FF000000FFFF00FF000000FF00FF00FFFF0000FFFFFF0000000000000000000000000000000000000000000000000000000000000000000000000000000000000000000000000000000000000000000000000000000000000000000000000000000000000000
310
00000000000000000000000000000000000000000000000000000000000000000000000000000000000000000000000000000000000000000000000000000000000000000000000000000000000000000000000000000000000000000000000000000000000000000000000000000000000000000000000000000000000000
310
00000000000000000000000000000000000000000000000000000000000000000000000000000000000000000000000000000000000000000000000000000000000000000000000000000000000000000000000000000000000000A4000000000000000000000000A40000000000000000000000000000000000ECEC000000
310
000000000000000000ECEC00000000000000000000000000000000ECA4000000000000000000000000A4EC00000000000000000000000000000000ECA4000000000000000000000000A4EC0000000000000000000000ECECECECECECECECECECECECECECECECECECECECECECECECECEC0000000000EC0000000000ECA40000
310
00000000000000000000A4EC0000000000EC000000EC0000000000ECEC07EC00000000000000000000EC07ECEC0000000000EC0000ECECECECECECECECECECECECECECECECECECECECEC07ECECECECECECECEC000000000000000000ECA4000000000000000000000000A4EC00000000000000000000000000000000ECA400
310
0000000000000000000000A4EC00000000000000000000000000000000ECA4000000000000000000000000A4EC00000000000000000000000000EC00ECECA4ECECECEC00000000ECECECECA4ECEC00EC00000000000000000000ECECECECA4ECECEC000000000000ECECECA4ECECECEC0000000000000000000000000000A4
310
000000000000000000000000A4000000000000000000000000000000000000000000000000000000000000000000000000000000000000000000000000000000000000000000000000000000000000000000000000000000000000000000000000000000000000000000000000000000000000000000000000000000000000
310
00000000000000000000000000000000000000000000000000000000000000000000000000000000000000000000000000000000000000000000000000000000000000000000000000000000000000000000000000000000000000000000000000000000000000000000000000000000000000000000000000000000000000
310
0000000000000000000000000000000000000000000000000000000000000000000000000000000000000000000000000000000000000000
102
{BLKREFS
331
154
102
}
1001
AcDbDynamicBlockGUID
1000
{9A1F9F0C-A1FA-4FEA-A1DC-D690CBFCF50D}
1001
AcDbBlockRepETag
1070
     1
1071
        8
1001
ACAD
1000
DesignCenter Data
1002
{
1070
     1
1070
     4
1002
}
  0
BLOCK_RECORD
  5
1CA
102
{ACAD_XDICTIONARY
360
1D1
102
}
330
1
100
AcDbSymbolTableRecord
100
AcDbBlockTableRecord
  2
*U14
340
0
102
{BLKREFS
331
192
331
322
102
}
1001
AcDbBlockRepBTag
1070
     1
1005
D2
  0
BLOCK_RECORD
  5
253
102
{ACAD_XDICTIONARY
360
25B
102
}
330
1
100
AcDbSymbolTableRecord
100
AcDbBlockTableRecord
  2
*U15
340
0
102
{BLKREFS
331
330
331
35D
102
}
1001
AcDbBlockRepBTag
1070
     1
1005
EE
  0
BLOCK_RECORD
  5
25E
102
{ACAD_XDICTIONARY
360
266
102
}
330
1
100
AcDbSymbolTableRecord
100
AcDbBlockTableRecord
  2
*U16
340
0
102
{BLKREFS
331
1F4
102
}
1001
AcDbBlockRepBTag
1070
     1
1005
EE
  0
BLOCK_RECORD
  5
272
102
{ACAD_XDICTIONARY
360
273
102
}
330
1
100
AcDbSymbolTableRecord
100
AcDbBlockTableRecord
  2
*U17
340
0
310
2800000020000000200000000100080000000000000400000000000000000000000000000000000000000000000080000080000000808000800000008000800080800000C0C0C000C0DCC000F0CAA6000020400000206000002080000020A0000020C0000020E00000400000004020000040400000406000004080000040A0
310
000040C0000040E00000600000006020000060400000606000006080000060A0000060C0000060E00000800000008020000080400000806000008080000080A0000080C0000080E00000A0000000A0200000A0400000A0600000A0800000A0A00000A0C00000A0E00000C0000000C0200000C0400000C0600000C0800000C0
310
A00000C0C00000C0E00000E0000000E0200000E0400000E0600000E0800000E0A00000E0C00000E0E00040000000400020004000400040006000400080004000A0004000C0004000E00040200000402020004020400040206000402080004020A0004020C0004020E000404000004040200040404000404060004040800040
310
40A0004040C0004040E00040600000406020004060400040606000406080004060A0004060C0004060E00040800000408020004080400040806000408080004080A0004080C0004080E00040A0000040A0200040A0400040A0600040A0800040A0A00040A0C00040A0E00040C0000040C0200040C0400040C0600040C08000
310
40C0A00040C0C00040C0E00040E0000040E0200040E0400040E0600040E0800040E0A00040E0C00040E0E00080000000800020008000400080006000800080008000A0008000C0008000E00080200000802020008020400080206000802080008020A0008020C0008020E00080400000804020008040400080406000804080
310
008040A0008040C0008040E00080600000806020008060400080606000806080008060A0008060C0008060E00080800000808020008080400080806000808080008080A0008080C0008080E00080A0000080A0200080A0400080A0600080A0800080A0A00080A0C00080A0E00080C0000080C0200080C0400080C0600080C0
310
800080C0A00080C0C00080C0E00080E0000080E0200080E0400080E0600080E0800080E0A00080E0C00080E0E000C0000000C0002000C0004000C0006000C0008000C000A000C000C000C000E000C0200000C0202000C0204000C0206000C0208000C020A000C020C000C020E000C0400000C0402000C0404000C0406000C0
310
408000C040A000C040C000C040E000C0600000C0602000C0604000C0606000C0608000C060A000C060C000C060E000C0800000C0802000C0804000C0806000C0808000C080A000C080C000C080E000C0A00000C0A02000C0A04000C0A06000C0A08000C0A0A000C0A0C000C0A0E000C0C00000C0C02000C0C04000C0C06000
310
C0C08000C0C0A000F0FBFF00A4A0A000808080000000FF0000FF000000FFFF00FF000000FF00FF00FFFF0000FFFFFF00000000000000000000000000000000000000000000000000000000000000000000000000000000000000000000000000B6000000000000000000000000000000000000000000000000000000000000
310
00FE00000000000000000000000000000000000000000000000000000000000000E0000000000000000000000000000000000000000000000000000000000000070707000000000000000000000000000000000000000000000000000000000000FE0000000000000000000000000000000000000000000000000000000000
310
0000FE00000000000000000000000000000000000000000000000000000000000000FE00000000000000000000000000000000000000000000000000000000000000FE00000000000000000000000000000000000000000000000000000000000000E000000000000000000000000000000000000000000000000000000000
310
000000FE00000000000000000000000000000000000000000000000000000000000000FE00000000000000000000000000000000000000000000000000000000000000FE00000000000000000000000000000000000000000000000000000000000000FE000000000000000000000000000000000000000000000000000000
310
00000000FE00000000000000000000000000000000000000000000000000000000000000FE00000000000000000000000000000000000000000000000000000000000000FE00000000000000000000000000000000000000000000000000000000000000FE0000000000000000000000000000000000000000000000000000
310
0000000000FE00000000000000000000000000000000000000000000000000000000000000FE00000000000000000000000000000000000000000000000000000000000000FE00000000000000000000000000000000000000000000000000000000000000FE00000000000000000000000000000000000000000000000000
310
000000000000FE00000000000000000000000000000000000000000000000000000000000000FE00000000000000000000000000000000000000000000000000000000000000FE0000000000000000000000000000000000000000000000000000000000FE00FE000000000000000000000000000000000000000000000000
310
0000000000FEFEFE000000000000000000000000000000000000000000000000000000000000FEFE000000000000000000000000000000000000000000000000000000000000FEFE000000000000000000000000000000000000000000000000000000000000FEFE0000000000000000000000000000000000000000000000
310
0000000000000000000000000000000000000000000000000000000000000000000000000000000000000000000000000000000000000000
102
{BLKREFS
331
2C2
102
}
1001
AcDbDynamicBlockTrueName
1000
H0601114
1001
AcDbDynamicBlockGUID
1000
{5CCB8E4D-FE9B-4905-8580-5729C5FEFB06}
1001
AcDbBlockRepETag
1070
     1
1071
       12
1001
ACAD
1000
DesignCenter Data
1002
{
1070
     1
1070
     4
1002
}
  0
BLOCK_RECORD
  5
285
102
{ACAD_XDICTIONARY
360
286
102
}
330
1
100
AcDbSymbolTableRecord
100
AcDbBlockTableRecord
  2
*U18
340
0
102
{BLKREFS
331
2B3
102
}
1001
AcDbBlockRepBTag
1070
     1
1005
272
  0
BLOCK_RECORD
  5
295
330
1
100
AcDbSymbolTableRecord
100
AcDbBlockTableRecord
  2
Clicker_AG_M6x40
340
0
102
{BLKREFS
331
2BA
102
}
1001
ACAD
1000
DesignCenter Data
1002
{
1070
     1
1070
     4
1002
}
  0
BLOCK_RECORD
  5
2B0
102
{ACAD_XDICTIONARY
360
2B1
102
}
330
1
100
AcDbSymbolTableRecord
100
AcDbBlockTableRecord
  2
H0601113
340
0
310
2800000020000000200000000100080000000000000400000000000000000000000000000000000000000000000080000080000000808000800000008000800080800000C0C0C000C0DCC000F0CAA6000020400000206000002080000020A0000020C0000020E00000400000004020000040400000406000004080000040A0
310
000040C0000040E00000600000006020000060400000606000006080000060A0000060C0000060E00000800000008020000080400000806000008080000080A0000080C0000080E00000A0000000A0200000A0400000A0600000A0800000A0A00000A0C00000A0E00000C0000000C0200000C0400000C0600000C0800000C0
310
A00000C0C00000C0E00000E0000000E0200000E0400000E0600000E0800000E0A00000E0C00000E0E00040000000400020004000400040006000400080004000A0004000C0004000E00040200000402020004020400040206000402080004020A0004020C0004020E000404000004040200040404000404060004040800040
310
40A0004040C0004040E00040600000406020004060400040606000406080004060A0004060C0004060E00040800000408020004080400040806000408080004080A0004080C0004080E00040A0000040A0200040A0400040A0600040A0800040A0A00040A0C00040A0E00040C0000040C0200040C0400040C0600040C08000
310
40C0A00040C0C00040C0E00040E0000040E0200040E0400040E0600040E0800040E0A00040E0C00040E0E00080000000800020008000400080006000800080008000A0008000C0008000E00080200000802020008020400080206000802080008020A0008020C0008020E00080400000804020008040400080406000804080
310
008040A0008040C0008040E00080600000806020008060400080606000806080008060A0008060C0008060E00080800000808020008080400080806000808080008080A0008080C0008080E00080A0000080A0200080A0400080A0600080A0800080A0A00080A0C00080A0E00080C0000080C0200080C0400080C0600080C0
310
800080C0A00080C0C00080C0E00080E0000080E0200080E0400080E0600080E0800080E0A00080E0C00080E0E000C0000000C0002000C0004000C0006000C0008000C000A000C000C000C000E000C0200000C0202000C0204000C0206000C0208000C020A000C020C000C020E000C0400000C0402000C0404000C0406000C0
310
408000C040A000C040C000C040E000C0600000C0602000C0604000C0606000C0608000C060A000C060C000C060E000C0800000C0802000C0804000C0806000C0808000C080A000C080C000C080E000C0A00000C0A02000C0A04000C0A06000C0A08000C0A0A000C0A0C000C0A0E000C0C00000C0C02000C0C04000C0C06000
310
C0C08000C0C0A000F0FBFF00A4A0A000808080000000FF0000FF000000FFFF00FF000000FF00FF00FFFF0000FFFFFF0000000000000000000000000000000000000000000000000000000000000000000000000000000000000000000000272700000000000000000000000000000000000000000000000000000000000027
310
27000000000000000000000000000000000000000000000000000000000000E0E0000000000000000000000000000000000000000000000000000000000000272700000000000000000000000000000000000000000000000000000000000027270000000000000000000000000000000000000000000000000000000000A4
310
0707ECECEC00000000000000000000000000000000000000000000000000000027270000000000000000000000000000000000000000000000000000000000002727000000000000000000000000000000000000000000000000000000000000E0E00000000000000000000000000000000000000000000000000000000000
310
00272700000000000000000000000000000000000000000000000000000000000027270000000000000000000000000000000000000000000000000000000000002727000000000000000000000000000000000000000000000000000000000000272700000000000000000000000000000000000000000000000000000000
310
00002727000000000000000000000000000000000000000000000000000000000000272700000000000000000000000000000000000000000000000000000000000027270000000000000000000000000000000000000000000000000000000000002727000000000000000000000000000000000000000000000000000000
310
00000027270000000000000000000000000000000000000000000000000000000000002727000000000000000000000000000000000000000000000000000000000000272700000000000000000000000000000000000000000000000000000000000027270000000000000000000000000000000000000000000000000000
310
00000000272700000000000000000000000000000000000000000000000000000000000027270000000000000000000000000000000000000000000000000000000000002727000000000000000000000000000000000000000000000000000000000027272700000000000000000000000000000000000000000000000000
310
00000000272727000000000000000000000000000000000000000000000000000000000000272700000000000000000000000000000000000000000000000000000000000027270000000000000000000000000000000000000000000000000000000000002727000000000000000000000000000000000000000000000000
310
0000000000000000000000000000000000000000000000000000000000000000000000000000000000000000000000000000000000000000
102
{BLKREFS
331
2C1
102
}
1001
AcDbDynamicBlockGUID
1000
{EB68E450-F349-4CFF-9AB7-330911C52234}
1001
AcDbBlockRepETag
1070
     1
1071
        2
1001
ACAD
1000
DesignCenter Data
1002
{
1070
     1
1070
     4
1002
}
  0
BLOCK_RECORD
  5
35A
102
{ACAD_XDICTIONARY
360
367
102
}
330
1
100
AcDbSymbolTableRecord
100
AcDbBlockTableRecord
  2
*U21
340
0
102
{BLKREFS
331
133
102
}
1001
AcDbBlockRepBTag
1070
     1
1005
11A
  0
ENDTAB
  0
ENDSEC
  0
SECTION
  2
BLOCKS
  0
BLOCK
  5
38
330
37
100
AcDbEntity
  8
0
100
AcDbBlockBegin
  2
*Model_Space
 70
     0
 10
0.0
 20
0.0
 30
0.0
  3
*Model_Space
  1

  0
ENDBLK
  5
39
330
37
100
AcDbEntity
  8
0
100
AcDbBlockEnd
  0
BLOCK
  5
34
330
33
100
AcDbEntity
 67
     1
  8
0
100
AcDbBlockBegin
  2
*Paper_Space
 70
     0
 10
0.0
 20
0.0
 30
0.0
  3
*Paper_Space
  1

  0
ENDBLK
  5
35
330
33
100
AcDbEntity
 67
     1
  8
0
100
AcDbBlockEnd
  0
BLOCK
  5
3C
330
3B
100
AcDbEntity
 67
     1
  8
0
100
AcDbBlockBegin
  2
*Paper_Space0
 70
     0
 10
0.0
 20
0.0
 30
0.0
  3
*Paper_Space0
  1

  0
ENDBLK
  5
3D
330
3B
100
AcDbEntity
 67
     1
  8
0
100
AcDbBlockEnd
  0
BLOCK
  5
5F
330
5E
100
AcDbEntity
  8
0
 48
2.0
100
AcDbBlockBegin
  2
DIN933_M8x60
 70
     0
 10
0.0
 20
0.0
 30
0.0
  3
DIN933_M8x60
  1

  0
LINE
  5
60
330
5E
100
AcDbEntity
  8
X_SC_cent
100
AcDbLine
 10
65.0
 20
0.0
 30
0.0
 11
65.0
 21
0.0
 31
0.0
1001
ANTLOG
1000
Metallbau Partner AG
  0
LINE
  5
61
330
5E
100
AcDbEntity
  8
X_SC_cent
100
AcDbLine
 10
-12.0
 20
0.0
 30
0.0
 11
65.0
 21
0.0
 31
0.0
1001
ANTLOG
1000
Metallbau Partner AG
  0
LINE
  5
62
330
5E
100
AcDbEntity
  8
0
100
AcDbLine
 10
3.75
 20
4.0
 30
0.0
 11
3.75
 21
-4.0
 31
0.0
1001
ANTLOG
1000
Metallbau Partner AG
  0
LINE
  5
63
330
5E
100
AcDbEntity
  8
0
100
AcDbLine
 10
58.74999998479
 20
4.0
 30
0.0
 11
58.74999998479
 21
-4.0
 31
0.0
1001
ANTLOG
1000
Metallbau Partner AG
  0
LINE
  5
64
330
5E
100
AcDbEntity
  8
0
100
AcDbLine
 10
3.75
 20
-3.136
 30
0.0
 11
0.0
 21
-4.0
 31
0.0
1001
ANTLOG
1000
Metallbau Partner AG
  0
LINE
  5
65
330
5E
100
AcDbEntity
  8
0
100
AcDbLine
 10
59.613999995303
 20
-3.136
 30
0.0
 11
3.75
 21
-3.136
 31
0.0
1001
ANTLOG
1000
Metallbau Partner AG
  0
LINE
  5
66
330
5E
100
AcDbEntity
  8
0
100
AcDbLine
 10
3.75
 20
3.136
 30
0.0
 11
59.613999995303
 21
3.136
 31
0.0
1001
ANTLOG
1000
Metallbau Partner AG
  0
LINE
  5
67
330
5E
100
AcDbEntity
  8
0
100
AcDbLine
 10
0.0
 20
4.0
 30
0.0
 11
3.75
 21
3.136
 31
0.0
1001
ANTLOG
1000
Metallbau Partner AG
  0
LINE
  5
68
330
5E
100
AcDbEntity
  8
0
100
AcDbLine
 10
0.0
 20
-4.0
 30
0.0
 11
0.0
 21
4.0
 31
0.0
1001
ANTLOG
1000
Metallbau Partner AG
  0
LINE
  5
69
330
5E
100
AcDbEntity
  8
0
100
AcDbLine
 10
58.74999998479
 20
-4.0
 30
0.0
 11
0.0
 21
-4.0
 31
0.0
1001
ANTLOG
1000
Metallbau Partner AG
  0
LINE
  5
6A
330
5E
100
AcDbEntity
  8
0
100
AcDbLine
 10
60.0
 20
-2.75
 30
0.0
 11
58.74999998479
 21
-4.0
 31
0.0
1001
ANTLOG
1000
Metallbau Partner AG
  0
LINE
  5
6B
330
5E
100
AcDbEntity
  8
0
100
AcDbLine
 10
60.0
 20
2.75
 30
0.0
 11
60.0
 21
-2.75
 31
0.0
1001
ANTLOG
1000
Metallbau Partner AG
  0
LINE
  5
6C
330
5E
100
AcDbEntity
  8
0
100
AcDbLine
 10
58.74999998479
 20
4.0
 30
0.0
 11
60.0
 21
2.75
 31
0.0
1001
ANTLOG
1000
Metallbau Partner AG
  0
LINE
  5
6D
330
5E
100
AcDbEntity
  8
0
100
AcDbLine
 10
0.0
 20
4.0
 30
0.0
 11
58.74999998479
 21
4.0
 31
0.0
1001
ANTLOG
1000
Metallbau Partner AG
  0
ARC
  5
6E
330
5E
100
AcDbEntity
  8
0
100
AcDbCircle
 10
-1.977852827479999
 20
-5.629330275739
 30
0.0
 40
3.322147172519999
100
AcDbArc
 50
145.609616668974
 51
205.609616204204
1001
ANTLOG
1000
Metallbau Partner AG
  0
LINE
  5
6F
330
5E
100
AcDbEntity
  8
0
100
AcDbLine
 10
-4.719316288432
 20
-3.752886850493
 30
0.0
 11
-0.6
 21
-3.752886850493
 31
0.0
1001
ANTLOG
1000
Metallbau Partner AG
  0
ARC
  5
70
330
5E
100
AcDbEntity
  8
0
100
AcDbCircle
 10
7.117563122726999
 20
0.0
 30
0.0
 40
12.417563122727
100
AcDbArc
 50
162.408763135388
 51
197.5912368646119
1001
ANTLOG
1000
Metallbau Partner AG
  0
LINE
  5
71
330
5E
100
AcDbEntity
  8
0
100
AcDbLine
 10
-4.719316288432
 20
3.752886850493
 30
0.0
 11
-0.6
 21
3.752886850493
 31
0.0
1001
ANTLOG
1000
Metallbau Partner AG
  0
ARC
  5
72
330
5E
100
AcDbEntity
  8
0
100
AcDbCircle
 10
-1.977852827479999
 20
5.629330275739
 30
0.0
 40
3.322147172519999
100
AcDbArc
 50
154.390383795795
 51
214.390383331026
1001
ANTLOG
1000
Metallbau Partner AG
  0
LINE
  5
73
330
5E
100
AcDbEntity
  8
0
100
AcDbLine
 10
-0.6
 20
5.799999999999999
 30
0.0
 11
-0.6
 21
-5.799999999999999
 31
0.0
1001
ANTLOG
1000
Metallbau Partner AG
  0
LINE
  5
74
330
5E
100
AcDbEntity
  8
0
100
AcDbLine
 10
0.0
 20
-5.799999999999999
 30
0.0
 11
0.0
 21
5.799999999999999
 31
0.0
1001
ANTLOG
1000
Metallbau Partner AG
  0
LINE
  5
75
330
5E
100
AcDbEntity
  8
0
100
AcDbLine
 10
-0.6
 20
-5.799999999999999
 30
0.0
 11
0.0
 21
-5.799999999999999
 31
0.0
1001
ANTLOG
1000
Metallbau Partner AG
  0
LINE
  5
76
330
5E
100
AcDbEntity
  8
0
100
AcDbLine
 10
-0.6
 20
-7.505773700985
 30
0.0
 11
-0.6
 21
-5.799999999999999
 31
0.0
1001
ANTLOG
1000
Metallbau Partner AG
  0
LINE
  5
77
330
5E
100
AcDbEntity
  8
0
100
AcDbLine
 10
-4.719316288432
 20
-7.505773700985
 30
0.0
 11
-0.6
 21
-7.505773700985
 31
0.0
1001
ANTLOG
1000
Metallbau Partner AG
  0
LINE
  5
78
330
5E
100
AcDbEntity
  8
0
100
AcDbLine
 10
-5.299999999999999
 20
-6.5
 30
0.0
 11
-4.719316288432
 21
-7.505773700985
 31
0.0
1001
ANTLOG
1000
Metallbau Partner AG
  0
LINE
  5
79
330
5E
100
AcDbEntity
  8
0
100
AcDbLine
 10
-5.299999999999999
 20
6.5
 30
0.0
 11
-5.299999999999999
 21
-6.5
 31
0.0
1001
ANTLOG
1000
Metallbau Partner AG
  0
LINE
  5
7A
330
5E
100
AcDbEntity
  8
0
100
AcDbLine
 10
-5.299999999999999
 20
6.5
 30
0.0
 11
-4.719316288432
 21
7.505773700985
 31
0.0
1001
ANTLOG
1000
Metallbau Partner AG
  0
LINE
  5
7B
330
5E
100
AcDbEntity
  8
0
100
AcDbLine
 10
-0.6
 20
7.505773700985
 30
0.0
 11
-4.719316288432
 21
7.505773700985
 31
0.0
1001
ANTLOG
1000
Metallbau Partner AG
  0
LINE
  5
7C
330
5E
100
AcDbEntity
  8
0
100
AcDbLine
 10
-0.6
 20
5.799999999999999
 30
0.0
 11
-0.6
 21
7.505773700985
 31
0.0
1001
ANTLOG
1000
Metallbau Partner AG
  0
LINE
  5
7D
330
5E
100
AcDbEntity
  8
0
100
AcDbLine
 10
0.0
 20
5.799999999999999
 30
0.0
 11
-0.6
 21
5.799999999999999
 31
0.0
1001
ANTLOG
1000
Metallbau Partner AG
  0
ENDBLK
  5
7E
330
5E
100
AcDbEntity
  8
0
 48
2.0
100
AcDbBlockEnd
  0
BLOCK
  5
84
330
7F
100
AcDbEntity
  8
0
 48
0.2
100
AcDbBlockBegin
  2
*U2
 70
     1
 10
0.0
 20
0.0
 30
0.0
  3
*U2
  1

  0
LINE
  5
85
330
7F
100
AcDbEntity
  8
0
 48
0.2
100
AcDbLine
 10
9.20000000000391
 20
-2.945235665175914
 30
0.0
 11
6.500000000003865
 21
-3.5
 31
0.0
1001
AcDbBlockRepETag
1070
     1
1071
        0
1005
85
  0
ARC
  5
86
330
7F
100
AcDbEntity
  8
0
 48
0.2
100
AcDbCircle
 10
4.600000000005934
 20
16.39138716344541
 30
0.0
 40
19.87624165722333
100
AcDbArc
 50
256.6186009009494
 51
283.3813990990379
1001
AcDbBlockRepETag
1070
     1
1071
        1
1005
86
  0
LWPOLYLINE
  5
87
330
7F
100
AcDbEntity
  8
0
 48
0.2
100
AcDbPolyline
 90
        4
 70
     0
 43
0.0
 10
9.20000000000391
 20
-2.945235665175914
 10
9.20000000000391
 20
0.0
 10
-9.199999999996066
 20
0.0
 10
-9.199999999996066
 20
-2.945235665175914
1001
AcDbBlockRepETag
1070
     1
1071
        2
1005
87
  0
LINE
  5
88
330
7F
100
AcDbEntity
  8
0
 48
0.1
100
AcDbLine
 10
0.0000000000038654
 20
0.0
 30
0.0
 11
0.0000000000038654
 21
-2.5
 31
0.0
1001
AcDbBlockRepETag
1070
     1
1071
        3
1005
88
  0
ARC
  5
89
330
7F
100
AcDbEntity
  8
0
 48
0.2
100
AcDbCircle
 10
-4.599999999998203
 20
16.39138716344541
 30
0.0
 40
19.87624165722333
100
AcDbArc
 50
256.6186009009621
 51
283.3813990990506
1001
AcDbBlockRepETag
1070
     1
1071
        4
1005
89
  0
LINE
  5
8A
330
7F
100
AcDbEntity
  8
0
 48
0.2
100
AcDbLine
 10
-9.19999999999618
 20
-2.945235665175914
 30
0.0
 11
-6.499999999996134
 21
-3.5
 31
0.0
1001
AcDbBlockRepETag
1070
     1
1071
        5
1005
8A
  0
LWPOLYLINE
  5
8B
330
7F
100
AcDbEntity
  8
0
 48
0.2
100
AcDbPolyline
 90
        2
 70
     0
 43
0.0
 10
-6.499999999996134
 20
-3.5
 10
6.500000000003865
 20
-3.5
1001
AcDbBlockRepETag
1070
     1
1071
        6
1005
8B
  0
ENDBLK
  5
8C
330
7F
100
AcDbEntity
  8
0
 48
0.2
100
AcDbBlockEnd
  0
BLOCK
  5
8F
330
8D
100
AcDbEntity
  8
0
 48
0.2
100
AcDbBlockBegin
  2
H0601115
 70
     0
 10
0.0
 20
0.0
 30
0.0
  3
H0601115
  1

  4
Finger Unterteil für Rostklammer
  0
LWPOLYLINE
  5
90
330
8D
100
AcDbEntity
  8
0
 48
2.0
100
AcDbPolyline
 90
       22
 70
     0
 43
0.0
 10
19.7797007939198
 20
-26.83633777191426
 42
-0.3519422190583591
 10
6.848856060460093
 20
-16.44775269714955
 10
-2.162796650678501
 20
5.194027167523017
 10
-3.750055672950111
 20
5.029635569182573
 10
-1.617119008416921
 20
-0.1674841817039123
 10
0.0
 20
0.0
 10
-1.617119008416921
 20
-0.1674841817039123
 10
5.235455678684957
 20
-16.86448782131719
 42
0.2985976945585118
 10
19.77970079391343
 20
-26.83633777191426
 10
81.47979479878257
 20
-20.45732314736597
 10
85.68772379924473
 20
-12.79747424265952
 10
85.41013031808677
 20
-10.1172110057314
 10
7.406079175314516
 20
-18.196050353592
 10
6.848856060458274
 20
-16.44775269714591
 10
22.68559246904624
 20
-14.80755007478547
 10
22.87065478981822
 20
-16.59439223273693
 10
22.68559246904624
 20
-14.80755007478547
 10
78.07769936551631
 20
-9.070618130866932
 10
78.26276168628829
 20
-10.85746028881749
 10
78.07769936551631
 20
-9.070618130866932
 10
85.22506799732207
 20
-8.330368847779027
 10
85.68772379924473
 20
-12.79747424265952
1001
AcDbBlockRepETag
1070
     1
1071
        0
1005
90
  0
ENDBLK
  5
91
330
8D
100
AcDbEntity
  8
0
 48
0.2
100
AcDbBlockEnd
  0
BLOCK
  5
97
330
92
100
AcDbEntity
  8
0
 48
0.2
100
AcDbBlockBegin
  2
*U4
 70
     1
 10
0.0
 20
0.0
 30
0.0
  3
*U4
  1

  4
Sattelstück für MW 33x33
  0
LWPOLYLINE
  5
98
330
92
100
AcDbEntity
  8
0
 48
2.0
100
AcDbPolyline
 90
       21
 70
     0
 43
0.0
 10
-6.800919235996275
 20
-7.504994432016246
 10
-4.390284030646739
 20
-8.078552831593697
 10
-2.308076017196412
 20
-1.838563382323627
 42
-0.6495740870451612
 10
2.618071571536916
 20
-1.361334440278369
 10
5.65705658506954
 20
-6.49259212492916
 42
0.264976525160478
 10
8.238319465853464
 20
-7.963840366046042
 10
25.0949647779355
 20
-7.963840366046042
 42
0.2649765251604818
 10
27.67622765871943
 20
-6.49259212492916
 10
30.71521267225217
 20
-1.361334440278369
 42
-0.6358102789424497
 10
35.6413602609864
 20
-1.838563382323627
 10
37.72356827443582
 20
-8.078552831593697
 10
40.13420347978535
 20
-7.504994432016246
 10
37.90085924433424
 20
-0.9913832241400086
 42
0.6437670694381898
 10
28.56416027159866
 20
-0.0873746412089531
 10
25.47124627963558
 20
-5.309690190168566
 42
-0.2649765251605106
 10
25.04103579950481
 20
-5.554898230354865
 10
8.292248444284155
 20
-5.554898230354865
 42
-0.2649765251605062
 10
7.862037964153387
 20
-5.309690190168566
 10
4.769123972190413
 20
-0.0873746412089531
 42
0.6357730255783166
 10
-4.567575000544252
 20
-0.9913832241400086
 10
-6.800919235996275
 20
-7.504994432016246
1001
AcDbBlockRepETag
1070
     1
1071
        0
1005
98
  0
LINE
  5
99
330
92
100
AcDbEntity
  8
018_CENT
 48
0.2
100
AcDbLine
 10
16.66664212189448
 20
-1.522474091708929
 30
0.0
 11
16.66664212189448
 21
-14.40520664038315
 31
0.0
1001
AcDbBlockRepETag
1070
     1
1071
        1
1005
99
  0
ENDBLK
  5
9A
330
92
100
AcDbEntity
  8
0
 48
0.2
100
AcDbBlockEnd
  0
BLOCK
  5
A0
330
9B
100
AcDbEntity
  8
0
 48
0.2
100
AcDbBlockBegin
  2
*U5
 70
     1
 10
0.0
 20
0.0
 30
0.0
  3
*U5
  1

  0
INSERT
  5
A1
330
9B
100
AcDbEntity
  8
0
 48
2.0
100
AcDbBlockReference
  2
DIN933_M8x60
 10
16.4054732903564
 20
-5.567519274880837
 30
0.0
 50
270.0
1001
AcDbBlockRepETag
1070
     1
1071
        0
1005
A1
  0
INSERT
  5
A2
330
9B
100
AcDbEntity
  8
0
 48
2.0
100
AcDbBlockReference
  2
*U2
 10
16.4054732903564
 20
-44.56217544524541
 30
0.0
1001
AcDbBlockRepETag
1070
     1
1071
        2
1005
A2
  0
INSERT
  5
A3
330
9B
100
AcDbEntity
  8
0
 48
2.0
100
AcDbBlockReference
  2
H0601115
 10
-22.99957745547025
 20
-30.01262104452506
 30
0.0
 50
3.4276420901505
1001
AcDbBlockRepETag
1070
     1
1071
        3
1005
A3
  0
INSERT
  5
A4
330
9B
100
AcDbEntity
  8
0
 48
2.0
100
AcDbBlockReference
  2
*U4
 10
-0.2611688315380789
 20
-0.0126210445259725
 30
0.0
1001
AcDbBlockRepETag
1070
     1
1071
        4
1005
A4
  0
ENDBLK
  5
A5
330
9B
100
AcDbEntity
  8
0
 48
0.2
100
AcDbBlockEnd
  0
BLOCK
  5
B7
330
B6
100
AcDbEntity
  8
0
 48
0.2
100
AcDbBlockBegin
  2
DIN963A_M8x60
 70
     0
 10
0.0
 20
0.0
 30
0.0
  3
DIN963A_M8x60
  1

  0
LINE
  5
B8
330
B6
100
AcDbEntity
  8
X_SC_cent
100
AcDbLine
 10
-3.000000000000003
 20
-0.0000000054756
 30
0.0
 11
63.0
 21
0.0000001149875994
 31
0.0
1001
ANTLOG
1000
Metallbau Partner AG
  0
LINE
  5
B9
330
B6
100
AcDbEntity
  8
0
100
AcDbLine
 10
6.5
 20
-3.136
 30
0.0
 11
4.927947551475999
 21
-3.930829717973999
 31
0.0
1001
ANTLOG
1000
Metallbau Partner AG
  0
LINE
  5
BA
330
B6
100
AcDbEntity
  8
0
100
AcDbLine
 10
59.999999961841
 20
-3.136
 30
0.0
 11
6.5
 21
-3.136
 31
0.0
1001
ANTLOG
1000
Metallbau Partner AG
  0
LINE
  5
BB
330
B6
100
AcDbEntity
  8
0
100
AcDbLine
 10
4.927947551475999
 20
3.930829717973999
 30
0.0
 11
6.5
 21
3.136
 31
0.0
1001
ANTLOG
1000
Metallbau Partner AG
  0
LINE
  5
BC
330
B6
100
AcDbEntity
  8
0
100
AcDbLine
 10
6.5
 20
3.136
 30
0.0
 11
59.999999961841
 21
3.136
 31
0.0
1001
ANTLOG
1000
Metallbau Partner AG
  0
LINE
  5
BD
330
B6
100
AcDbEntity
  8
0
100
AcDbLine
 10
59.999999951328
 20
4.0
 30
0.0
 11
59.999999951328
 21
-4.0
 31
0.0
1001
ANTLOG
1000
Metallbau Partner AG
  0
LINE
  5
BE
330
B6
100
AcDbEntity
  8
0
100
AcDbLine
 10
6.5
 20
4.0
 30
0.0
 11
6.5
 21
-4.0
 31
0.0
1001
ANTLOG
1000
Metallbau Partner AG
  0
LINE
  5
BF
330
B6
100
AcDbEntity
  8
0
100
AcDbLine
 10
6.5
 20
-4.0
 30
0.0
 11
4.0
 21
-3.890000040883999
 31
0.0
1001
ANTLOG
1000
Metallbau Partner AG
  0
LINE
  5
C0
330
B6
100
AcDbEntity
  8
0
100
AcDbLine
 10
59.999999951328
 20
-4.0
 30
0.0
 11
6.5
 21
-4.0
 31
0.0
1001
ANTLOG
1000
Metallbau Partner AG
  0
LINE
  5
C1
330
B6
100
AcDbEntity
  8
0
100
AcDbLine
 10
60.0
 20
0.0
 30
0.0
 11
59.999999951328
 21
-4.0
 31
0.0
1001
ANTLOG
1000
Metallbau Partner AG
  0
LINE
  5
C2
330
B6
100
AcDbEntity
  8
0
100
AcDbLine
 10
59.999999951328
 20
4.0
 30
0.0
 11
60.0
 21
0.0
 31
0.0
1001
ANTLOG
1000
Metallbau Partner AG
  0
LINE
  5
C3
330
B6
100
AcDbEntity
  8
0
100
AcDbLine
 10
6.5
 20
4.0
 30
0.0
 11
59.999999951328
 21
4.0
 31
0.0
1001
ANTLOG
1000
Metallbau Partner AG
  0
LINE
  5
C4
330
B6
100
AcDbEntity
  8
0
100
AcDbLine
 10
4.0
 20
3.890000040883999
 30
0.0
 11
6.5
 21
4.0
 31
0.0
1001
ANTLOG
1000
Metallbau Partner AG
  0
LINE
  5
C5
330
B6
100
AcDbEntity
  8
0
100
AcDbLine
 10
4.0
 20
3.026000040883999
 30
0.0
 11
4.0
 21
-3.026000040883999
 31
0.0
1001
ANTLOG
1000
Metallbau Partner AG
  0
LINE
  5
C6
330
B6
100
AcDbEntity
  8
0
100
AcDbLine
 10
0.6400000000000001
 20
7.25
 30
0.0
 11
0.6400000000000001
 21
1.0
 31
0.0
1001
ANTLOG
1000
Metallbau Partner AG
  0
LINE
  5
C7
330
B6
100
AcDbEntity
  8
0
100
AcDbLine
 10
0.6400000000000001
 20
-7.25
 30
0.0
 11
0.6400000000000001
 21
-1.0
 31
0.0
1001
ANTLOG
1000
Metallbau Partner AG
  0
LINE
  5
C8
330
B6
100
AcDbEntity
  8
0
100
AcDbLine
 10
0.6400000000000001
 20
7.25
 30
0.0
 11
4.0
 21
3.890000040883999
 31
0.0
1001
ANTLOG
1000
Metallbau Partner AG
  0
LINE
  5
C9
330
B6
100
AcDbEntity
  8
0
100
AcDbLine
 10
0.0
 20
7.25
 30
0.0
 11
0.6400000000000001
 21
7.25
 31
0.0
1001
ANTLOG
1000
Metallbau Partner AG
  0
LINE
  5
CA
330
B6
100
AcDbEntity
  8
0
100
AcDbLine
 10
0.0
 20
1.0
 30
0.0
 11
0.0
 21
7.25
 31
0.0
1001
ANTLOG
1000
Metallbau Partner AG
  0
LINE
  5
CB
330
B6
100
AcDbEntity
  8
0
100
AcDbLine
 10
1.6
 20
1.0
 30
0.0
 11
0.0
 21
1.0
 31
0.0
1001
ANTLOG
1000
Metallbau Partner AG
  0
LINE
  5
CC
330
B6
100
AcDbEntity
  8
0
100
AcDbLine
 10
1.6
 20
-1.0
 30
0.0
 11
1.6
 21
1.0
 31
0.0
1001
ANTLOG
1000
Metallbau Partner AG
  0
LINE
  5
CD
330
B6
100
AcDbEntity
  8
0
100
AcDbLine
 10
0.0
 20
-1.0
 30
0.0
 11
1.6
 21
-1.0
 31
0.0
1001
ANTLOG
1000
Metallbau Partner AG
  0
LINE
  5
CE
330
B6
100
AcDbEntity
  8
0
100
AcDbLine
 10
0.0
 20
-7.25
 30
0.0
 11
0.0
 21
-1.0
 31
0.0
1001
ANTLOG
1000
Metallbau Partner AG
  0
LINE
  5
CF
330
B6
100
AcDbEntity
  8
0
100
AcDbLine
 10
0.6400000000000001
 20
-7.25
 30
0.0
 11
0.0
 21
-7.25
 31
0.0
1001
ANTLOG
1000
Metallbau Partner AG
  0
LINE
  5
D0
330
B6
100
AcDbEntity
  8
0
100
AcDbLine
 10
4.0
 20
-3.890000040883999
 30
0.0
 11
0.6400000000000001
 21
-7.25
 31
0.0
1001
ANTLOG
1000
Metallbau Partner AG
  0
ENDBLK
  5
D1
330
B6
100
AcDbEntity
  8
0
 48
0.2
100
AcDbBlockEnd
  0
BLOCK
  5
D7
330
D2
100
AcDbEntity
  8
0
 48
0.2
100
AcDbBlockBegin
  2
*U7
 70
     1
 10
0.0
 20
0.0
 30
0.0
  3
*U7
  1

  4
Sattelstk. MW11
  0
LINE
  5
196
330
D2
100
AcDbEntity
  8
ST_CENT
 48
0.1
100
AcDbLine
 10
6.25
 20
4.481740443687613
 30
0.0
 11
6.25
 21
-3.478638206760933
 31
0.0
1001
AcDbBlockRepETag
1070
     1
1071
        0
1005
196
  0
LWPOLYLINE
  5
197
330
D2
100
AcDbEntity
  8
ST_HIDD
 48
0.1
100
AcDbPolyline
 90
        2
 70
     0
 43
0.0
 10
0.3599999834515302
 20
0.0
 10
-1.613441039147801
 20
1.973441046611696
1001
AcDbBlockRepETag
1070
     1
1071
        1
1005
197
  0
LWPOLYLINE
  5
198
330
D2
100
AcDbEntity
  8
ST_HIDD
 48
0.1
100
AcDbPolyline
 90
        2
 70
     0
 43
0.0
 10
12.14000001654847
 20
0.0
 10
14.1134410391478
 20
1.973441046611696
1001
AcDbBlockRepETag
1070
     1
1071
        2
1005
198
  0
LWPOLYLINE
  5
199
330
D2
100
AcDbEntity
  8
0
 48
2.0
100
AcDbPolyline
 90
       13
 70
     1
 43
0.0
 10
-3.75
 20
-8.0
 10
-3.75
 20
-0.5
 42
-0.4142135623730951
 10
-1.25
 20
2.0
 10
13.75
 20
2.0
 42
-0.4142135623730951
 10
16.25
 20
-0.5
 10
16.25
 20
-8.0
 10
14.25
 20
-8.0
 10
14.25
 20
-0.5
 42
0.4142135623730951
 10
13.75
 20
0.0
 10
-1.25
 20
0.0
 42
0.4142135623730951
 10
-1.75
 20
-0.5
 10
-1.75
 20
-8.0
 10
-3.75
 20
-8.0
1001
AcDbBlockRepETag
1070
     1
1071
        3
1005
199
  0
ENDBLK
  5
DC
330
D2
100
AcDbEntity
  8
0
 48
0.2
100
AcDbBlockEnd
  0
BLOCK
  5
DF
330
DD
100
AcDbEntity
  8
0
 48
0.2
100
AcDbBlockBegin
  2
H0601103
 70
     0
 10
0.0
 20
0.0
 30
0.0
  3
H0601103
  1

  0
INSERT
  5
31F
330
DD
100
AcDbEntity
  8
0
 48
2.0
100
AcDbBlockReference
  2
DIN963A_M8x60
 10
6.25
 20
2.0
 30
0.0
 50
270.0
1001
AcDbBlockRepETag
1070
     1
1071
        0
1005
31F
  0
INSERT
  5
320
330
DD
100
AcDbEntity
  8
0
 48
2.0
100
AcDbBlockReference
  2
*U2
 10
6.250000114983777
 20
-44.54955440072035
 30
0.0
1001
AcDbBlockRepETag
1070
     1
1071
        1
1005
320
  0
INSERT
  5
321
330
DD
100
AcDbEntity
  8
0
 48
2.0
100
AcDbBlockReference
  2
H0601115
 10
-33.15505063084288
 20
-30.0
 30
0.0
 50
3.427642090150483
1001
AcDbBlockRepETag
1070
     1
1071
        2
1005
321
  0
INSERT
  5
322
102
{ACAD_XDICTIONARY
360
323
102
}
330
DD
100
AcDbEntity
  8
0
 48
2.0
100
AcDbBlockReference
  2
*U14
 10
0.0
 20
0.0
 30
0.0
1001
AcDbBlockRepETag
1070
     1
1071
        3
1005
322
  0
ENDBLK
  5
E4
330
DD
100
AcDbEntity
  8
0
 48
0.2
100
AcDbBlockEnd
  0
BLOCK
  5
F3
330
EE
100
AcDbEntity
  8
0
 48
0.35
100
AcDbBlockBegin
  2
*U9
 70
     1
 10
0.0
 20
0.0
 30
0.0
  3
*U9
  1

  4
Sattelstück MW 22
  0
LWPOLYLINE
  5
247
330
EE
100
AcDbEntity
  8
0
 48
0.2
100
AcDbPolyline
 90
       10
 70
     0
 43
0.0
 10
-5.376695611620217
 20
-7.431677051777772
 10
-2.837823655009966
 20
-0.0269856614279194
 42
-0.6397627949994791
 10
2.581262880783928
 20
0.5287517588829145
 10
3.995655266139809
 20
-5.236372809930547
 42
0.2649765251608966
 10
4.42586574627052
 20
-5.481580850116391
 10
17.42586574627052
 20
-5.481580850116391
 42
0.2649765251606531
 10
17.85607622640117
 20
-5.236372809930093
 10
19.27046861175774
 20
0.5287517588842788
 42
-0.6397627949995118
 10
24.68955514755175
 20
-0.0269856614270099
 10
27.22842710416149
 20
-7.431677051778227
1001
AcDbBlockRepETag
1070
     1
1071
        0
1005
247
  0
LWPOLYLINE
  5
248
330
EE
100
AcDbEntity
  8
0
 48
0.2
100
AcDbPolyline
 90
       10
 70
     0
 43
0.0
 10
-3.48481317494696
 20
-8.080353277492324
 10
-0.9459412183368236
 20
-0.675661887142927
 42
-0.6397627949994145
 10
0.8604209602613686
 20
-0.4904160803723459
 10
2.274813345616568
 20
-6.255540649184443
 42
0.2649765251612699
 10
4.425865746275068
 20
-7.481580850116391
 10
17.42586574627075
 20
-7.481580850116391
 42
0.264976525160507
 10
19.57691814692402
 20
-6.255540649184898
 10
20.99131053228024
 20
-0.4904160803709816
 42
-0.6397627949994372
 10
22.79767271087866
 20
-0.6756618871415628
 10
25.33654466748818
 20
-8.080353277492779
1001
AcDbBlockRepETag
1070
     1
1071
        1
1005
248
  0
LINE
  5
249
330
EE
100
AcDbEntity
  8
0
 48
0.2
100
AcDbLine
 10
-3.48481317494696
 20
-8.080353277492324
 30
0.0
 11
-5.376695611620217
 21
-7.431677051777772
 31
0.0
1001
AcDbBlockRepETag
1070
     1
1071
        2
1005
249
  0
LINE
  5
24A
330
EE
100
AcDbEntity
  8
0
 48
0.2
100
AcDbLine
 10
25.33654466748818
 20
-8.080353277492779
 30
0.0
 11
27.22842710416149
 21
-7.431677051778227
 31
0.0
1001
AcDbBlockRepETag
1070
     1
1071
        3
1005
24A
  0
LINE
  5
24B
330
EE
100
AcDbEntity
  8
025_CENT
 48
0.2
100
AcDbLine
 10
10.92586574627291
 20
-1.828641021304137
 30
0.0
 11
10.92586574627291
 21
-13.13452067892864
 31
0.0
1001
AcDbBlockRepETag
1070
     1
1071
        4
1005
24B
  0
ENDBLK
  5
F9
330
EE
100
AcDbEntity
  8
0
 48
0.35
100
AcDbBlockEnd
  0
BLOCK
  5
108
330
103
100
AcDbEntity
  8
0
 48
0.2
100
AcDbBlockBegin
  2
*U10
 70
     1
 10
0.0
 20
0.0
 30
0.0
  3
*U10
  1

  0
LINE
  5
109
330
103
100
AcDbEntity
  8
X_SC_cent
100
AcDbLine
 10
65.0
 20
0.0
 30
0.0
 11
65.0
 21
0.0
 31
0.0
1001
ANTLOG
1000
Metallbau Partner AG
1001
AcDbBlockRepETag
1070
     1
1071
        0
1005
109
  0
LINE
  5
10A
330
103
100
AcDbEntity
  8
X_SC_cent
100
AcDbLine
 10
-12.0
 20
0.0
 30
0.0
 11
65.0
 21
0.0
 31
0.0
1001
ANTLOG
1000
Metallbau Partner AG
1001
AcDbBlockRepETag
1070
     1
1071
        1
1005
10A
  0
LINE
  5
10B
330
103
100
AcDbEntity
  8
0
100
AcDbLine
 10
3.75
 20
4.0
 30
0.0
 11
3.75
 21
-4.0
 31
0.0
1001
ANTLOG
1000
Metallbau Partner AG
1001
AcDbBlockRepETag
1070
     1
1071
        2
1005
10B
  0
LINE
  5
10C
330
103
100
AcDbEntity
  8
0
100
AcDbLine
 10
58.74999998479
 20
4.0
 30
0.0
 11
58.74999998479
 21
-4.0
 31
0.0
1001
ANTLOG
1000
Metallbau Partner AG
1001
AcDbBlockRepETag
1070
     1
1071
        3
1005
10C
  0
LINE
  5
10D
330
103
100
AcDbEntity
  8
0
100
AcDbLine
 10
3.75
 20
-3.136
 30
0.0
 11
0.0
 21
-4.0
 31
0.0
1001
ANTLOG
1000
Metallbau Partner AG
1001
AcDbBlockRepETag
1070
     1
1071
        4
1005
10D
  0
LINE
  5
10E
330
103
100
AcDbEntity
  8
0
100
AcDbLine
 10
59.613999995303
 20
-3.136
 30
0.0
 11
3.75
 21
-3.136
 31
0.0
1001
ANTLOG
1000
Metallbau Partner AG
1001
AcDbBlockRepETag
1070
     1
1071
        5
1005
10E
  0
LINE
  5
10F
330
103
100
AcDbEntity
  8
0
100
AcDbLine
 10
3.75
 20
3.136
 30
0.0
 11
59.613999995303
 21
3.136
 31
0.0
1001
ANTLOG
1000
Metallbau Partner AG
1001
AcDbBlockRepETag
1070
     1
1071
        6
1005
10F
  0
LINE
  5
110
330
103
100
AcDbEntity
  8
0
100
AcDbLine
 10
0.0
 20
4.0
 30
0.0
 11
3.75
 21
3.136
 31
0.0
1001
ANTLOG
1000
Metallbau Partner AG
1001
AcDbBlockRepETag
1070
     1
1071
        7
1005
110
  0
LINE
  5
111
330
103
100
AcDbEntity
  8
0
100
AcDbLine
 10
58.74999998479
 20
-4.0
 30
0.0
 11
0.0
 21
-4.0
 31
0.0
1001
ANTLOG
1000
Metallbau Partner AG
1001
AcDbBlockRepETag
1070
     1
1071
        9
1005
111
  0
LINE
  5
112
330
103
100
AcDbEntity
  8
0
100
AcDbLine
 10
60.0
 20
-2.75
 30
0.0
 11
58.74999998479
 21
-4.0
 31
0.0
1001
ANTLOG
1000
Metallbau Partner AG
1001
AcDbBlockRepETag
1070
     1
1071
       10
1005
112
  0
LINE
  5
113
330
103
100
AcDbEntity
  8
0
100
AcDbLine
 10
60.0
 20
2.75
 30
0.0
 11
60.0
 21
-2.75
 31
0.0
1001
ANTLOG
1000
Metallbau Partner AG
1001
AcDbBlockRepETag
1070
     1
1071
       11
1005
113
  0
LINE
  5
114
330
103
100
AcDbEntity
  8
0
100
AcDbLine
 10
58.74999998479
 20
4.0
 30
0.0
 11
60.0
 21
2.75
 31
0.0
1001
ANTLOG
1000
Metallbau Partner AG
1001
AcDbBlockRepETag
1070
     1
1071
       12
1005
114
  0
LINE
  5
115
330
103
100
AcDbEntity
  8
0
100
AcDbLine
 10
0.0
 20
4.0
 30
0.0
 11
58.74999998479
 21
4.0
 31
0.0
1001
ANTLOG
1000
Metallbau Partner AG
1001
AcDbBlockRepETag
1070
     1
1071
       13
1005
115
  0
LWPOLYLINE
  5
116
330
103
100
AcDbEntity
  8
0
 48
0.2
100
AcDbPolyline
 90
        6
 70
     0
 43
0.0
 10
-5.0
 20
-1.000000000000002
 10
-5.0
 20
-6.0
 10
0.0
 20
-6.5
 10
0.0
 20
6.499999999999999
 10
-5.0
 20
5.999999999999999
 10
-5.0
 20
1.0
1001
AcDbBlockRepETag
1070
     1
1071
       30
1005
116
  0
LWPOLYLINE
  5
117
330
103
100
AcDbEntity
  8
0
 48
0.2
100
AcDbPolyline
 90
        4
 70
     0
 43
0.0
 10
-5.0
 20
-1.0
 10
-2.5
 20
-1.0
 10
-2.5
 20
0.9999999999999991
 10
-5.0
 20
0.9999999999999991
1001
AcDbBlockRepETag
1070
     1
1071
       31
1005
117
  0
POINT
  5
118
330
103
100
AcDbEntity
  8
018_POINT
 48
0.2
100
AcDbPoint
 10
-5.0
 20
-0.0000000000000009
 30
0.0
1001
AcDbBlockRepETag
1070
     1
1071
       32
1005
118
  0
ENDBLK
  5
119
330
103
100
AcDbEntity
  8
0
 48
0.2
100
AcDbBlockEnd
  0
BLOCK
  5
11F
330
11A
100
AcDbEntity
  8
0
 48
0.2
100
AcDbBlockBegin
  2
*U11
 70
     1
 10
0.0
 20
0.0
 30
0.0
  3
*U11
  1

  0
INSERT
  5
330
102
{ACAD_XDICTIONARY
360
331
102
}
330
11A
100
AcDbEntity
  8
0
 48
0.35
100
AcDbBlockReference
  2
*U15
 10
-0.0000000000023892
 20
-0.0000000000000009
 30
0.0
1001
AcDbBlockRepETag
1070
     1
1071
        0
1005
330
  0
INSERT
  5
337
330
11A
100
AcDbEntity
  8
0
 48
0.2
100
AcDbBlockReference
  2
*U2
 10
10.92586574627029
 20
-44.55477172639894
 30
0.0
1001
AcDbBlockRepETag
1070
     1
1071
        1
1005
337
  0
INSERT
  5
338
330
11A
100
AcDbEntity
  8
0
 48
0.2
100
AcDbBlockReference
  2
H0601115
 10
-28.47918499955637
 20
-30.0052173256786
 30
0.0
 50
3.4276420901505
1001
AcDbBlockRepETag
1070
     1
1071
        2
1005
338
  0
INSERT
  5
339
330
11A
100
AcDbEntity
  8
0
 48
0.2
100
AcDbBlockReference
  2
*U10
 10
10.92586574627052
 20
-5.481580850116392
 30
0.0
 50
270.0
1001
AcDbBlockRepETag
1070
     1
1071
        3
1005
339
  0
ENDBLK
  5
12A
330
11A
100
AcDbEntity
  8
0
 48
0.2
100
AcDbBlockEnd
  0
BLOCK
  5
139
330
134
100
AcDbEntity
  8
0
 48
0.35
100
AcDbBlockBegin
  2
*U12
 70
     1
 10
0.0
 20
0.0
 30
0.0
  3
*U12
  1

  0
LWPOLYLINE
  5
13A
330
134
100
AcDbEntity
  8
0
 48
0.25
100
AcDbPolyline
 90
        6
 70
     1
 43
0.0
 10
-32.5
 20
-13.5
 10
109.5
 20
-13.5
 10
118.5
 20
-4.5
 10
118.5
 20
0.0
 10
-41.5
 20
0.0
 10
-41.5
 20
-4.5
1001
AcDbBlockRepETag
1070
     1
1071
        0
1005
13A
  0
LINE
  5
13B
330
134
100
AcDbEntity
  8
ST_HIDD
 48
0.25
100
AcDbLine
 10
-41.5
 20
-2.0
 30
0.0
 11
118.5
 21
-2.0
 31
0.0
1001
AcDbBlockRepETag
1070
     1
1071
        1
1005
13B
  0
LINE
  5
13C
330
134
100
AcDbEntity
  8
ST_EDGE
 48
0.35
100
AcDbLine
 10
98.50000000000001
 20
-2.0
 30
0.0
 11
98.50000000000001
 21
0.0
 31
0.0
1001
AcDbBlockRepETag
1070
     1
1071
        2
1005
13C
  0
LINE
  5
13D
330
134
100
AcDbEntity
  8
ST_EDGE
 48
0.35
100
AcDbLine
 10
55.5
 20
-2.0
 30
0.0
 11
55.5
 21
0.0
 31
0.0
1001
AcDbBlockRepETag
1070
     1
1071
        3
1005
13D
  0
LINE
  5
13E
330
134
100
AcDbEntity
  8
025_CENT
 48
0.1
100
AcDbLine
 10
77.0
 20
-5.352660675187507
 30
0.0
 11
77.0
 21
3.205800673707926
 31
0.0
1001
AcDbBlockRepETag
1070
     1
1071
        4
1005
13E
  0
LINE
  5
13F
330
134
100
AcDbEntity
  8
ST_EDGE
 48
0.35
100
AcDbLine
 10
-21.5
 20
-2.0
 30
0.0
 11
-21.5
 21
0.0
 31
0.0
1001
AcDbBlockRepETag
1070
     1
1071
        5
1005
13F
  0
LINE
  5
140
330
134
100
AcDbEntity
  8
ST_EDGE
 48
0.35
100
AcDbLine
 10
21.5
 20
-2.0
 30
0.0
 11
21.5
 21
0.0
 31
0.0
1001
AcDbBlockRepETag
1070
     1
1071
        6
1005
140
  0
LINE
  5
141
330
134
100
AcDbEntity
  8
025_CENT
 48
0.1
100
AcDbLine
 10
0.0
 20
-5.352660675187507
 30
0.0
 11
0.0
 21
3.205800673707926
 31
0.0
1001
AcDbBlockRepETag
1070
     1
1071
        7
1005
141
  0
ENDBLK
  5
142
330
134
100
AcDbEntity
  8
0
 48
0.35
100
AcDbBlockEnd
  0
BLOCK
  5
145
330
143
100
AcDbEntity
  8
0
 48
0.2
100
AcDbBlockBegin
  2
H0601107
 70
     0
 10
0.0
 20
0.0
 30
0.0
  3
H0601107
  1

  4
Sattelstück für MW 33x33
  0
INSERT
  5
146
330
143
100
AcDbEntity
  8
0
100
AcDbBlockReference
  2
*U12
 10
16.66664212189835
 20
-30.0
 30
0.0
1001
AcDbBlockRepETag
1070
     1
1071
        2
1005
146
  0
INSERT
  5
147
330
143
100
AcDbEntity
  8
0
 48
0.35
100
AcDbBlockReference
  2
DIN933_M8x60
 10
16.66664212189448
 20
-5.554898230354865
 30
0.0
 50
270.0
1001
AcDbBlockRepETag
1070
     1
1071
        0
1005
147
  0
INSERT
  5
148
330
143
100
AcDbEntity
  8
0
 48
0.35
100
AcDbBlockReference
  2
*U2
 10
16.66664212189448
 20
-32.0
 30
0.0
1001
AcDbBlockRepETag
1070
     1
1071
        3
1005
148
  0
INSERT
  5
149
330
143
100
AcDbEntity
  8
0
 48
0.35
100
AcDbBlockReference
  2
DIN933_M8x60
 10
93.66664212190221
 20
-5.554898230354865
 30
0.0
 41
-1.0
 50
90.0
1001
AcDbBlockRepETag
1070
     1
1071
        4
1005
149
  0
INSERT
  5
14A
330
143
100
AcDbEntity
  8
0
 48
0.35
100
AcDbBlockReference
  2
*U2
 10
93.66664212190221
 20
-32.0
 30
0.0
 41
-1.0
1001
AcDbBlockRepETag
1070
     1
1071
        5
1005
14A
  0
INSERT
  5
14B
330
143
100
AcDbEntity
  8
0
 48
0.35
100
AcDbBlockReference
  2
*U4
 10
0.0
 20
0.0
 30
0.0
1001
AcDbBlockRepETag
1070
     1
1071
        6
1005
14B
  0
INSERT
  5
14C
330
143
100
AcDbEntity
  8
0
 48
0.35
100
AcDbBlockReference
  2
*U4
 10
77.00000000000773
 20
0.0
 30
0.0
1001
AcDbBlockRepETag
1070
     1
1071
        7
1005
14C
  0
ENDBLK
  5
14D
330
143
100
AcDbEntity
  8
0
 48
0.2
100
AcDbBlockEnd
  0
BLOCK
  5
1CB
330
1CA
100
AcDbEntity
  8
0
100
AcDbBlockBegin
  2
*U14
 70
     1
 10
0.0
 20
0.0
 30
0.0
  3
*U14
  1

  0
LINE
  5
1CD
330
1CA
100
AcDbEntity
  8
ST_CENT
 48
0.1
100
AcDbLine
 10
6.25
 20
4.481740443687613
 30
0.0
 11
6.25
 21
-3.478638206760933
 31
0.0
1001
AcDbBlockRepETag
1070
     1
1071
        0
1005
1CD
  0
LWPOLYLINE
  5
1CE
330
1CA
100
AcDbEntity
  8
ST_HIDD
 48
0.1
100
AcDbPolyline
 90
        2
 70
     0
 43
0.0
 10
0.3599999834515302
 20
0.0
 10
-1.613441039147801
 20
1.973441046611696
1001
AcDbBlockRepETag
1070
     1
1071
        1
1005
1CE
  0
LWPOLYLINE
  5
1CF
330
1CA
100
AcDbEntity
  8
ST_HIDD
 48
0.1
100
AcDbPolyline
 90
        2
 70
     0
 43
0.0
 10
12.14000001654847
 20
0.0
 10
14.1134410391478
 20
1.973441046611696
1001
AcDbBlockRepETag
1070
     1
1071
        2
1005
1CF
  0
LWPOLYLINE
  5
1D0
330
1CA
100
AcDbEntity
  8
0
 48
2.0
100
AcDbPolyline
 90
       13
 70
     1
 43
0.0
 10
-3.75
 20
-8.0
 10
-3.75
 20
-0.5
 42
-0.4142135623730951
 10
-1.25
 20
2.0
 10
13.75
 20
2.0
 42
-0.4142135623730951
 10
16.25
 20
-0.5
 10
16.25
 20
-8.0
 10
14.25
 20
-8.0
 10
14.25
 20
-0.5
 42
0.4142135623730951
 10
13.75
 20
0.0
 10
-1.25
 20
0.0
 42
0.4142135623730951
 10
-1.75
 20
-0.5
 10
-1.75
 20
-8.0
 10
-3.75
 20
-8.0
1001
AcDbBlockRepETag
1070
     1
1071
        3
1005
1D0
  0
ENDBLK
  5
1CC
330
1CA
100
AcDbEntity
  8
0
100
AcDbBlockEnd
  0
BLOCK
  5
254
330
253
100
AcDbEntity
  8
0
100
AcDbBlockBegin
  2
*U15
 70
     1
 10
0.0
 20
0.0
 30
0.0
  3
*U15
  1

  0
LWPOLYLINE
  5
256
330
253
100
AcDbEntity
  8
0
 48
0.2
100
AcDbPolyline
 90
       10
 70
     0
 43
0.0
 10
-5.376695611620217
 20
-7.431677051777772
 10
-2.837823655009966
 20
-0.0269856614279194
 42
-0.6397627949994791
 10
2.581262880783928
 20
0.5287517588829145
 10
3.995655266139809
 20
-5.236372809930547
 42
0.2649765251608966
 10
4.42586574627052
 20
-5.481580850116391
 10
17.42586574627052
 20
-5.481580850116391
 42
0.2649765251606531
 10
17.85607622640117
 20
-5.236372809930093
 10
19.27046861175774
 20
0.5287517588842788
 42
-0.6397627949995118
 10
24.68955514755175
 20
-0.0269856614270099
 10
27.22842710416149
 20
-7.431677051778227
1001
AcDbBlockRepETag
1070
     1
1071
        0
1005
256
  0
LWPOLYLINE
  5
257
330
253
100
AcDbEntity
  8
0
 48
0.2
100
AcDbPolyline
 90
       10
 70
     0
 43
0.0
 10
-3.48481317494696
 20
-8.080353277492324
 10
-0.9459412183368236
 20
-0.675661887142927
 42
-0.6397627949994145
 10
0.8604209602613686
 20
-0.4904160803723459
 10
2.274813345616568
 20
-6.255540649184443
 42
0.2649765251612699
 10
4.425865746275068
 20
-7.481580850116391
 10
17.42586574627075
 20
-7.481580850116391
 42
0.264976525160507
 10
19.57691814692402
 20
-6.255540649184898
 10
20.99131053228024
 20
-0.4904160803709816
 42
-0.6397627949994372
 10
22.79767271087866
 20
-0.6756618871415628
 10
25.33654466748818
 20
-8.080353277492779
1001
AcDbBlockRepETag
1070
     1
1071
        1
1005
257
  0
LINE
  5
258
330
253
100
AcDbEntity
  8
0
 48
0.2
100
AcDbLine
 10
-3.48481317494696
 20
-8.080353277492324
 30
0.0
 11
-5.376695611620217
 21
-7.431677051777772
 31
0.0
1001
AcDbBlockRepETag
1070
     1
1071
        2
1005
258
  0
LINE
  5
259
330
253
100
AcDbEntity
  8
0
 48
0.2
100
AcDbLine
 10
25.33654466748818
 20
-8.080353277492779
 30
0.0
 11
27.22842710416149
 21
-7.431677051778227
 31
0.0
1001
AcDbBlockRepETag
1070
     1
1071
        3
1005
259
  0
LINE
  5
25A
330
253
100
AcDbEntity
  8
025_CENT
 48
0.2
100
AcDbLine
 10
10.92586574627291
 20
-1.828641021304137
 30
0.0
 11
10.92586574627291
 21
-13.13452067892864
 31
0.0
1001
AcDbBlockRepETag
1070
     1
1071
        4
1005
25A
  0
ENDBLK
  5
255
330
253
100
AcDbEntity
  8
0
100
AcDbBlockEnd
  0
BLOCK
  5
25F
330
25E
100
AcDbEntity
  8
0
100
AcDbBlockBegin
  2
*U16
 70
     1
 10
0.0
 20
0.0
 30
0.0
  3
*U16
  1

  0
LWPOLYLINE
  5
261
330
25E
100
AcDbEntity
  8
0
 48
0.2
100
AcDbPolyline
 90
       10
 70
     0
 43
0.0
 10
-5.376695611620217
 20
-7.431677051777772
 10
-2.837823655009966
 20
-0.0269856614279194
 42
-0.6397627949994791
 10
2.581262880783928
 20
0.5287517588829145
 10
3.995655266139809
 20
-5.236372809930547
 42
0.2649765251608966
 10
4.42586574627052
 20
-5.481580850116391
 10
17.42586574627052
 20
-5.481580850116391
 42
0.2649765251606531
 10
17.85607622640117
 20
-5.236372809930093
 10
19.27046861175774
 20
0.5287517588842788
 42
-0.6397627949995118
 10
24.68955514755175
 20
-0.0269856614270099
 10
27.22842710416149
 20
-7.431677051778227
1001
AcDbBlockRepETag
1070
     1
1071
        0
1005
261
  0
LWPOLYLINE
  5
262
330
25E
100
AcDbEntity
  8
0
 48
0.2
100
AcDbPolyline
 90
       10
 70
     0
 43
0.0
 10
-3.48481317494696
 20
-8.080353277492324
 10
-0.9459412183368236
 20
-0.675661887142927
 42
-0.6397627949994145
 10
0.8604209602613686
 20
-0.4904160803723459
 10
2.274813345616568
 20
-6.255540649184443
 42
0.2649765251612699
 10
4.425865746275068
 20
-7.481580850116391
 10
17.42586574627075
 20
-7.481580850116391
 42
0.264976525160507
 10
19.57691814692402
 20
-6.255540649184898
 10
20.99131053228024
 20
-0.4904160803709816
 42
-0.6397627949994372
 10
22.79767271087866
 20
-0.6756618871415628
 10
25.33654466748818
 20
-8.080353277492779
1001
AcDbBlockRepETag
1070
     1
1071
        1
1005
262
  0
LINE
  5
263
330
25E
100
AcDbEntity
  8
0
 48
0.2
100
AcDbLine
 10
-3.48481317494696
 20
-8.080353277492324
 30
0.0
 11
-5.376695611620217
 21
-7.431677051777772
 31
0.0
1001
AcDbBlockRepETag
1070
     1
1071
        2
1005
263
  0
LINE
  5
264
330
25E
100
AcDbEntity
  8
0
 48
0.2
100
AcDbLine
 10
25.33654466748818
 20
-8.080353277492779
 30
0.0
 11
27.22842710416149
 21
-7.431677051778227
 31
0.0
1001
AcDbBlockRepETag
1070
     1
1071
        3
1005
264
  0
LINE
  5
265
330
25E
100
AcDbEntity
  8
025_CENT
 48
0.2
100
AcDbLine
 10
10.92586574627291
 20
-1.828641021304137
 30
0.0
 11
10.92586574627291
 21
-13.13452067892864
 31
0.0
1001
AcDbBlockRepETag
1070
     1
1071
        4
1005
265
  0
ENDBLK
  5
260
330
25E
100
AcDbEntity
  8
0
100
AcDbBlockEnd
  0
BLOCK
  5
277
330
272
100
AcDbEntity
  8
0
 48
0.35
100
AcDbBlockBegin
  2
*U17
 70
     1
 10
0.0
 20
0.0
 30
0.0
  3
*U17
  1

  0
LINE
  5
278
330
272
100
AcDbEntity
  8
025_CENT
 48
0.15
100
AcDbLine
 10
-4.300000000000295
 20
-202.2491390390689
 30
0.0
 11
8.299999999999613
 21
-202.2491390390689
 31
0.0
1001
AcDbBlockRepETag
1070
     1
1071
        0
1005
278
  0
LINE
  5
279
330
272
100
AcDbEntity
  8
ST_HIDD
 48
0.15
100
AcDbLine
 10
2.999999999999658
 20
-232.2491390390689
 30
0.0
 11
0.9999999999996589
 21
-232.2491390390689
 31
0.0
1001
AcDbBlockRepETag
1070
     1
1071
        1
1005
279
  0
LINE
  5
27A
330
272
100
AcDbEntity
  8
ST_HIDD
 48
0.15
100
AcDbLine
 10
2.999999999999658
 20
-172.2491390390689
 30
0.0
 11
0.9999999999996589
 21
-172.2491390390689
 31
0.0
1001
AcDbBlockRepETag
1070
     1
1071
        2
1005
27A
  0
POINT
  5
27B
330
272
100
AcDbEntity
  8
0
 48
0.5
100
AcDbPoint
 10
0.9999999999996589
 20
-242.1245695195345
 30
0.0
1001
AcDbBlockRepETag
1070
     1
1071
        3
1005
27B
  0
LINE
  5
27C
330
272
100
AcDbEntity
  8
0
 48
0.5
100
AcDbLine
 10
-12.04494936199296
 20
-35.97695054034932
 30
0.0
 11
-0.9563047559632877
 21
0.2923717047227683
 31
0.0
1001
AcDbBlockRepETag
1070
     1
1071
        4
1005
27C
  0
ARC
  5
27D
330
272
100
AcDbEntity
  8
0
 48
0.5
100
AcDbCircle
 10
-0.0000000000001137
 20
0.0000000000001137
 30
0.0
 40
1.000000000000108
100
AcDbArc
 50
359.9999999999935
 51
163.0000000000076
1001
AcDbBlockRepETag
1070
     1
1071
        5
1005
27D
  0
LINE
  5
27E
330
272
100
AcDbEntity
  8
0
 48
0.5
100
AcDbLine
 10
0.9999999999996589
 20
0.0
 30
0.0
 11
0.9999999999996589
 21
-242.1245695195345
 31
0.0
1001
AcDbBlockRepETag
1070
     1
1071
        6
1005
27E
  0
LINE
  5
27F
330
272
100
AcDbEntity
  8
0
 48
0.5
100
AcDbLine
 10
0.9999999999996589
 20
-242.1245695195345
 30
0.0
 11
2.999999999999658
 21
-242.1245695195345
 31
0.0
1001
AcDbBlockRepETag
1070
     1
1071
        7
1005
27F
  0
LINE
  5
280
330
272
100
AcDbEntity
  8
0
 48
0.5
100
AcDbLine
 10
2.999999999999658
 20
-242.1245695195345
 30
0.0
 11
2.999999999999658
 21
0.0000000000000568
 31
0.0
1001
AcDbBlockRepETag
1070
     1
1071
        8
1005
280
  0
ARC
  5
281
330
272
100
AcDbEntity
  8
0
 48
0.5
100
AcDbCircle
 10
-0.0000000000003411
 20
-0.0000000000000568
 30
0.0
 40
3.0
100
AcDbArc
 50
0.0000000000016284
 51
162.9999999999979
1001
AcDbBlockRepETag
1070
     1
1071
        9
1005
281
  0
LINE
  5
282
330
272
100
AcDbEntity
  8
0
 48
0.5
100
AcDbLine
 10
-2.868914267889408
 20
0.877115114168248
 30
0.0
 11
-13.95755887391908
 21
-35.39220713090384
 31
0.0
1001
AcDbBlockRepETag
1070
     1
1071
       10
1005
282
  0
LINE
  5
283
330
272
100
AcDbEntity
  8
0
 48
0.5
100
AcDbLine
 10
-13.95755887391908
 20
-35.39220713090384
 30
0.0
 11
-12.04494936199296
 21
-35.97695054034932
 31
0.0
1001
AcDbBlockRepETag
1070
     1
1071
       11
1005
283
  0
ENDBLK
  5
284
330
272
100
AcDbEntity
  8
0
 48
0.35
100
AcDbBlockEnd
  0
BLOCK
  5
287
330
285
100
AcDbEntity
  8
0
 48
0.35
100
AcDbBlockBegin
  2
*U18
 70
     1
 10
0.0
 20
0.0
 30
0.0
  3
*U18
  1

  0
LINE
  5
288
330
285
100
AcDbEntity
  8
025_CENT
 48
0.15
100
AcDbLine
 10
-4.300000000000295
 20
-202.2491390390689
 30
0.0
 11
8.299999999999613
 21
-202.2491390390689
 31
0.0
1001
AcDbBlockRepETag
1070
     1
1071
        0
1005
288
  0
LINE
  5
289
330
285
100
AcDbEntity
  8
ST_HIDD
 48
0.15
100
AcDbLine
 10
2.999999999999658
 20
-232.2491390390689
 30
0.0
 11
0.9999999999996589
 21
-232.2491390390689
 31
0.0
1001
AcDbBlockRepETag
1070
     1
1071
        1
1005
289
  0
LINE
  5
28A
330
285
100
AcDbEntity
  8
ST_HIDD
 48
0.15
100
AcDbLine
 10
2.999999999999658
 20
-172.2491390390689
 30
0.0
 11
0.9999999999996589
 21
-172.2491390390689
 31
0.0
1001
AcDbBlockRepETag
1070
     1
1071
        2
1005
28A
  0
POINT
  5
28B
330
285
100
AcDbEntity
  8
0
 48
0.5
100
AcDbPoint
 10
0.9999999999996589
 20
-242.1245695195345
 30
0.0
1001
AcDbBlockRepETag
1070
     1
1071
        3
1005
28B
  0
LINE
  5
28C
330
285
100
AcDbEntity
  8
0
 48
0.5
100
AcDbLine
 10
-12.04494936199296
 20
-35.97695054034932
 30
0.0
 11
-0.9563047559632877
 21
0.2923717047227683
 31
0.0
1001
AcDbBlockRepETag
1070
     1
1071
        4
1005
28C
  0
ARC
  5
28D
330
285
100
AcDbEntity
  8
0
 48
0.5
100
AcDbCircle
 10
-0.0000000000001137
 20
0.0000000000001137
 30
0.0
 40
1.000000000000108
100
AcDbArc
 50
359.9999999999935
 51
163.0000000000076
1001
AcDbBlockRepETag
1070
     1
1071
        5
1005
28D
  0
LINE
  5
28E
330
285
100
AcDbEntity
  8
0
 48
0.5
100
AcDbLine
 10
0.9999999999996589
 20
0.0
 30
0.0
 11
0.9999999999996589
 21
-242.1245695195345
 31
0.0
1001
AcDbBlockRepETag
1070
     1
1071
        6
1005
28E
  0
LINE
  5
28F
330
285
100
AcDbEntity
  8
0
 48
0.5
100
AcDbLine
 10
0.9999999999996589
 20
-242.1245695195345
 30
0.0
 11
2.999999999999658
 21
-242.1245695195345
 31
0.0
1001
AcDbBlockRepETag
1070
     1
1071
        7
1005
28F
  0
LINE
  5
290
330
285
100
AcDbEntity
  8
0
 48
0.5
100
AcDbLine
 10
2.999999999999658
 20
-242.1245695195345
 30
0.0
 11
2.999999999999658
 21
0.0000000000000568
 31
0.0
1001
AcDbBlockRepETag
1070
     1
1071
        8
1005
290
  0
ARC
  5
291
330
285
100
AcDbEntity
  8
0
 48
0.5
100
AcDbCircle
 10
-0.0000000000003411
 20
-0.0000000000000568
 30
0.0
 40
3.0
100
AcDbArc
 50
0.0000000000016284
 51
162.9999999999979
1001
AcDbBlockRepETag
1070
     1
1071
        9
1005
291
  0
LINE
  5
292
330
285
100
AcDbEntity
  8
0
 48
0.5
100
AcDbLine
 10
-2.868914267889408
 20
0.877115114168248
 30
0.0
 11
-13.95755887391908
 21
-35.39220713090384
 31
0.0
1001
AcDbBlockRepETag
1070
     1
1071
       10
1005
292
  0
LINE
  5
293
330
285
100
AcDbEntity
  8
0
 48
0.5
100
AcDbLine
 10
-13.95755887391908
 20
-35.39220713090384
 30
0.0
 11
-12.04494936199296
 21
-35.97695054034932
 31
0.0
1001
AcDbBlockRepETag
1070
     1
1071
       11
1005
293
  0
ENDBLK
  5
294
330
285
100
AcDbEntity
  8
0
 48
0.35
100
AcDbBlockEnd
  0
BLOCK
  5
296
330
295
100
AcDbEntity
  8
0
 48
0.35
100
AcDbBlockBegin
  2
Clicker_AG_M6x40
 70
     0
 10
0.0
 20
0.0
 30
0.0
  3
Clicker_AG_M6x40
  1

  0
LINE
  5
297
330
295
100
AcDbEntity
  8
0
100
AcDbLine
 10
23.19999999999999
 20
2.549968500000014
 30
0.0
 11
29.20041999999995
 21
3.0
 31
0.0
1001
ANTLOG
1000
Metallbau Partner AG
  0
LINE
  5
298
330
295
100
AcDbEntity
  8
0
100
AcDbLine
 10
29.20041999999995
 20
3.0
 30
0.0
 11
29.20041999999998
 21
-3.0
 31
0.0
1001
ANTLOG
1000
Metallbau Partner AG
  0
LINE
  5
299
330
295
100
AcDbEntity
  8
0
100
AcDbLine
 10
31.00001438198213
 20
-3.0
 30
0.0
 11
31.00001438198213
 21
3.0
 31
0.0
1001
ANTLOG
1000
Metallbau Partner AG
  0
LINE
  5
29A
330
295
100
AcDbEntity
  8
0
100
AcDbLine
 10
31.00001438198211
 20
3.0
 30
0.0
 11
29.20041999999995
 21
3.0
 31
0.0
1001
ANTLOG
1000
Metallbau Partner AG
  0
LINE
  5
29B
330
295
100
AcDbEntity
  8
0
100
AcDbLine
 10
23.19999999999998
 20
-2.549968500000011
 30
0.0
 11
29.20041999999998
 21
-3.0
 31
0.0
1001
ANTLOG
1000
Metallbau Partner AG
  0
LINE
  5
29C
330
295
100
AcDbEntity
  8
X_SC_cent
100
AcDbLine
 10
-11.7000007190991
 20
0.0
 30
0.0
 11
33.70001510108123
 21
0.0
 31
0.0
1001
ANTLOG
1000
Metallbau Partner AG
  0
LWPOLYLINE
  5
29D
330
295
100
AcDbEntity
  8
0
100
AcDbPolyline
 90
        2
 70
     0
 43
0.0
 10
17.31999999999996
 20
2.549999999999965
 10
17.19999999999997
 20
2.549999999999982
1001
ANTLOG
1000
Metallbau Partner AG
  0
LWPOLYLINE
  5
29E
330
295
100
AcDbEntity
  8
0
100
AcDbPolyline
 90
        2
 70
     0
 43
0.0
 10
17.19999999999997
 20
-2.549999999999982
 10
17.31999999999996
 20
-2.549999999999974
1001
ANTLOG
1000
Metallbau Partner AG
  0
LWPOLYLINE
  5
29F
330
295
100
AcDbEntity
  8
0
100
AcDbPolyline
 90
       20
 70
     1
 43
0.0
 10
17.31999999999996
 20
2.999999999999982
 10
23.19999999999999
 20
2.999999999999982
 10
23.19999999999999
 20
0.9300000000000068
 42
-0.4142135623730951
 10
23.01999999999998
 20
0.75
 10
21.99999999999999
 20
0.75
 42
0.4142135623730951
 10
21.69999999999998
 20
0.45
 10
21.69999999999998
 20
-0.45
 42
0.4142135623730966
 10
21.99999999999999
 20
-0.75
 10
23.01999999999998
 20
-0.749999999999983
 42
-0.4142135623730951
 10
23.19999999999995
 20
-0.9299999999999897
 10
23.19999999999999
 20
-3.000000000000016
 10
17.31999999999996
 20
-3.000000000000016
 10
17.31999999999996
 20
-0.9299999999999897
 42
-0.4142135623730951
 10
17.49999999999997
 20
-0.7499999999999915
 10
18.51999999999996
 20
-0.75
 42
0.4142135623730966
 10
18.81999999999997
 20
-0.45
 10
18.81999999999997
 20
0.45
 42
0.4142135623730951
 10
18.51999999999996
 20
0.75
 10
17.49999999999993
 20
0.75
 42
-0.4142135623730951
 10
17.31999999999993
 20
0.9300000000000068
1001
ANTLOG
1000
Metallbau Partner AG
  0
LINE
  5
2A0
330
295
100
AcDbEntity
  8
0
100
AcDbLine
 10
5.999999999999965
 20
-3.000000000000016
 30
0.0
 11
5.999999999999965
 21
2.999999999999982
 31
0.0
1001
ANTLOG
1000
Metallbau Partner AG
  0
LINE
  5
2A1
330
295
100
AcDbEntity
  8
0
100
AcDbLine
 10
-0.0000000000000085
 20
2.520000000000027
 30
0.0
 11
5.999999999999965
 21
2.520000000000027
 31
0.0
1001
ANTLOG
1000
Metallbau Partner AG
  0
LINE
  5
2A2
330
295
100
AcDbEntity
  8
0
100
AcDbLine
 10
0.0
 20
-2.519999999999992
 30
0.0
 11
5.999999999999965
 21
-2.520000000000018
 31
0.0
1001
ANTLOG
1000
Metallbau Partner AG
  0
LWPOLYLINE
  5
2A3
330
295
100
AcDbEntity
  8
0
100
AcDbPolyline
 90
        4
 70
     0
 43
0.0
 10
0.0000000000000171
 20
2.999999999999948
 10
17.19999999999997
 20
2.999999999999982
 10
17.19999999999997
 20
-3.000000000000016
 10
-0.0000000000000171
 20
-2.999999999999991
1001
ANTLOG
1000
Metallbau Partner AG
  0
LWPOLYLINE
  5
2A4
330
295
100
AcDbEntity
  8
0
100
AcDbPolyline
 90
        4
 70
     1
 43
0.0
 10
0.0
 20
5.999999999999983
 10
0.0
 20
-5.999999999999991
 10
-1.599999999999991
 20
-5.999999999999991
 10
-1.599999999999991
 20
5.999999999999983
1001
ANTLOG
1000
Metallbau Partner AG
  0
LINE
  5
2A5
330
295
100
AcDbEntity
  8
0
100
AcDbLine
 10
-8.003109888430909
 20
2.520000000000027
 30
0.0
 11
-6.399999999999974
 21
2.520000000000027
 31
0.0
1001
ANTLOG
1000
Metallbau Partner AG
  0
LINE
  5
2A6
330
295
100
AcDbEntity
  8
0
100
AcDbLine
 10
-7.800000000000025
 20
2.999999999999931
 30
0.0
 11
-7.79999999999999
 21
-3.0
 31
0.0
1001
ANTLOG
1000
Metallbau Partner AG
  0
LINE
  5
2A7
330
295
100
AcDbEntity
  8
0
100
AcDbLine
 10
-8.003109888428165
 20
-2.519999999999984
 30
0.0
 11
-6.399999999999974
 21
-2.519999999999992
 31
0.0
1001
ANTLOG
1000
Metallbau Partner AG
  0
LWPOLYLINE
  5
2A8
330
295
100
AcDbEntity
  8
0
100
AcDbPolyline
 90
       10
 70
     0
 43
0.0
 10
-6.399999999999991
 20
-2.999999999999982
 10
-7.79999999999999
 20
-3.000000000000008
 10
-7.964566881162474
 20
-2.588582797093817
 42
0.3066784415588715
 10
-8.243109888428048
 20
-2.400000000000059
 10
-8.999999999999991
 20
-2.399999999999999
 10
-8.999999999999991
 20
2.399999999999999
 10
-8.243109888428048
 20
2.40000000000005
 42
0.3066784415588721
 10
-7.964566881162491
 20
2.588582797093835
 10
-7.800000000000025
 20
2.999999999999948
 10
-6.399999999999991
 20
2.999999999999948
1001
ANTLOG
1000
Metallbau Partner AG
  0
LINE
  5
2A9
330
295
100
AcDbEntity
  8
0
100
AcDbLine
 10
29.20041999999998
 20
-3.0
 30
0.0
 11
31.00001438198211
 21
-3.0
 31
0.0
1001
ANTLOG
1000
Metallbau Partner AG
  0
LWPOLYLINE
  5
2AA
330
295
100
AcDbEntity
  8
0
100
AcDbPolyline
 90
        8
 70
     1
 43
0.0
 10
-5.92000000000008
 20
5.888972745734176
 10
-2.07999999999997
 20
5.888972745734176
 42
-0.3251136540221164
 10
-2.080000000000012
 20
2.944486372866506
 42
-0.154330357609241
 10
-2.08
 20
-2.944486372867084
 42
-0.3251136540221164
 10
-2.079999999999964
 20
-5.888972745734176
 10
-5.92000000000008
 20
-5.888972745734176
 42
-0.3251136540221164
 10
-5.91999999999997
 20
-2.944486372867107
 42
-0.1543303576092411
 10
-5.92000000000005
 20
2.944486372867084
 42
-0.3251136540221164
1001
ANTLOG
1000
Metallbau Partner AG
  0
LINE
  5
2AB
330
295
100
AcDbEntity
  8
0
100
AcDbLine
 10
-6.399999999999991
 20
4.416729559300651
 30
0.0
 11
-6.399999999999991
 21
-4.416729559300651
 31
0.0
1001
ANTLOG
1000
Metallbau Partner AG
  0
LINE
  5
2AC
330
295
100
AcDbEntity
  8
0
100
AcDbLine
 10
-1.599999999999991
 20
4.416729559300651
 30
0.0
 11
-1.599999999999991
 21
-4.416729559300651
 31
0.0
1001
ANTLOG
1000
Metallbau Partner AG
  0
LINE
  5
2AD
330
295
100
AcDbEntity
  8
0
100
AcDbLine
 10
-2.079999999999964
 20
-2.944486372867109
 30
0.0
 11
-5.919999999999972
 21
-2.944486372867109
 31
0.0
1001
ANTLOG
1000
Metallbau Partner AG
  0
LINE
  5
2AE
330
295
100
AcDbEntity
  8
0
100
AcDbLine
 10
-2.079999999999964
 20
2.944486372867092
 30
0.0
 11
-5.920000000000055
 21
2.944486372867092
 31
0.0
1001
ANTLOG
1000
Metallbau Partner AG
  0
ENDBLK
  5
2AF
330
295
100
AcDbEntity
  8
0
 48
0.35
100
AcDbBlockEnd
  0
BLOCK
  5
2B2
330
2B0
100
AcDbEntity
  8
0
 48
0.35
100
AcDbBlockBegin
  2
H0601113
 70
     0
 10
0.0
 20
0.0
 30
0.0
  3
H0601113
  1

  0
INSERT
  5
2B3
102
{ACAD_XDICTIONARY
360
2B4
102
}
330
2B0
100
AcDbEntity
  8
0
100
AcDbBlockReference
  2
*U18
 10
0.0000000000001137
 20
-0.0000000000001137
 30
0.0
1001
AcDbBlockRepETag
1070
     1
1071
        0
1005
2B3
  0
INSERT
  5
2BA
330
2B0
100
AcDbEntity
  8
ST_EDGE
 48
0.35
100
AcDbBlockReference
  2
Clicker_AG_M6x40
 10
0.9999999999997726
 20
-202.249139039069
 30
0.0
1001
AcDbBlockRepETag
1070
     1
1071
        1
1005
2BA
  0
ENDBLK
  5
2BB
330
2B0
100
AcDbEntity
  8
0
 48
0.35
100
AcDbBlockEnd
  0
BLOCK
  5
35B
330
35A
100
AcDbEntity
  8
0
100
AcDbBlockBegin
  2
*U21
 70
     1
 10
0.0
 20
0.0
 30
0.0
  3
*U21
  1

  0
INSERT
  5
35D
102
{ACAD_XDICTIONARY
360
35E
102
}
330
35A
100
AcDbEntity
  8
0
 48
0.35
100
AcDbBlockReference
  2
*U15
 10
-0.0000000000023892
 20
-0.0000000000000009
 30
0.0
1001
AcDbBlockRepETag
1070
     1
1071
        0
1005
35D
  0
INSERT
  5
364
330
35A
100
AcDbEntity
  8
0
 48
0.2
100
AcDbBlockReference
  2
*U2
 10
10.92586574627029
 20
-44.55477172639894
 30
0.0
1001
AcDbBlockRepETag
1070
     1
1071
        1
1005
364
  0
INSERT
  5
365
330
35A
100
AcDbEntity
  8
0
 48
0.2
100
AcDbBlockReference
  2
H0601115
 10
-28.47918499955637
 20
-30.0052173256786
 30
0.0
 50
3.4276420901505
1001
AcDbBlockRepETag
1070
     1
1071
        2
1005
365
  0
INSERT
  5
366
330
35A
100
AcDbEntity
  8
0
 48
0.2
100
AcDbBlockReference
  2
*U10
 10
10.92586574627052
 20
-5.481580850116392
 30
0.0
 50
270.0
1001
AcDbBlockRepETag
1070
     1
1071
        3
1005
366
  0
ENDBLK
  5
35C
330
35A
100
AcDbEntity
  8
0
100
AcDbBlockEnd
  0
ENDSEC
  0
SECTION
  2
ENTITIES
  0
INSERT
  5
B5
330
37
100
AcDbEntity
  8
0
100
AcDbBlockReference
  2
*U5
 10
0.0
 20
0.0
 30
0.0
  0
INSERT
  5
ED
330
37
100
AcDbEntity
  8
0
100
AcDbBlockReference
  2
H0601103
 10
238.4225815021509
 20
0.0
 30
0.0
  0
INSERT
  5
133
102
{ACAD_XDICTIONARY
360
353
102
}
330
37
100
AcDbEntity
  8
0
100
AcDbBlockReference
  2
*U21
 10
436.0869292405355
 20
0.0
 30
0.0
  0
INSERT
  5
154
330
37
100
AcDbEntity
  8
0
100
AcDbBlockReference
  2
H0601107
 10
600.0
 20
0.0
 30
0.0
  0
INSERT
  5
186
330
37
100
AcDbEntity
  8
0
100
AcDbBlockReference
  2
*U4
 10
24.32326147607632
 20
-199.2565720276395
 30
0.0
  0
INSERT
  5
192
102
{ACAD_XDICTIONARY
360
1C3
102
}
330
37
100
AcDbEntity
  8
0
100
AcDbBlockReference
  2
*U14
 10
244.0232014747589
 20
-200.0
 30
0.0
  0
INSERT
  5
1F4
102
{ACAD_XDICTIONARY
360
21E
102
}
330
37
100
AcDbEntity
  8
0
100
AcDbBlockReference
  2
*U16
 10
439.2081649092656
 20
-200.0
 30
0.0
  0
INSERT
  5
2C1
330
37
100
AcDbEntity
  8
0
100
AcDbBlockReference
  2
H0601113
 10
891.8451607707234
 20
9.515919594401566
 30
0.0
  0
INSERT
  5
2C2
330
37
100
AcDbEntity
  8
0
100
AcDbBlockReference
  2
*U17
 10
1091.845160770723
 20
9.515919594401566
 30
0.0
  0
INSERT
  5
2EF
330
37
100
AcDbEntity
  8
0
100
AcDbBlockReference
  2
*U12
 10
615.1573918145991
 20
-218.458755565061
 30
0.0
  0
MTEXT
  5
3EA
330
37
100
AcDbEntity
  8
0
100
AcDbMText
 10
-28.82142045804903
 20
58.33253326387148
 30
0.0
 40
7.0
 41
160.9235756776006
 71
     1
 72
     5
  1
H0601100\PRostklammer MW 33x33 komplett
 73
     1
 44
1.0
1001
ACAD
1000
MTEXTBEGIN
1070
    73
1070
     1
1070
    44
1040
1.0
1070
    74
1070
     0
1000
MTEXTEND
1000
ACAD_MTEXT_DEFINED_HEIGHT_BEGIN
1070
    46
1040
44.74759079685538
1000
ACAD_MTEXT_DEFINED_HEIGHT_END
  0
MTEXT
  5
3F1
330
37
100
AcDbEntity
  8
0
100
AcDbMText
 10
188.3028209484964
 20
58.33253326387148
 30
0.0
 40
7.0
 41
160.9235756776006
 71
     1
 72
     5
  1
H0601103\PRostklammer MW 33x11 komplett
 73
     1
 44
1.0
1001
ACAD
1000
MTEXTBEGIN
1070
    73
1070
     1
1070
    44
1040
1.0
1070
    74
1070
     0
1000
MTEXTEND
1000
ACAD_MTEXT_DEFINED_HEIGHT_BEGIN
1070
    46
1040
44.74759079685538
1000
ACAD_MTEXT_DEFINED_HEIGHT_END
  0
MTEXT
  5
3F2
330
37
100
AcDbEntity
  8
0
100
AcDbMText
 10
388.9369529685641
 20
58.33253326387148
 30
0.0
 40
7.0
 41
160.9235756776006
 71
     1
 72
     5
  1
H0601105\PRostklammer MW 22x22 komplett
 73
     1
 44
1.0
1001
ACAD
1000
MTEXTBEGIN
1070
    73
1070
     1
1070
    44
1040
1.0
1070
    74
1070
     0
1000
MTEXTEND
1000
ACAD_MTEXT_DEFINED_HEIGHT_BEGIN
1070
    46
1040
44.74759079685538
1000
ACAD_MTEXT_DEFINED_HEIGHT_END
  0
MTEXT
  5
3F3
330
37
100
AcDbEntity
  8
0
100
AcDbMText
 10
593.0262297377221
 20
58.33253326387148
 30
0.0
 40
7.0
 41
160.9235756776006
 71
     1
 72
     5
  1
H0601107\PDoppel-Rostklammer MW 33x33
 73
     1
 44
1.0
1001
ACAD
1000
MTEXTBEGIN
1070
    73
1070
     1
1070
    44
1040
1.0
1070
    74
1070
     0
1000
MTEXTEND
1000
ACAD_MTEXT_DEFINED_HEIGHT_BEGIN
1070
    46
1040
44.74759079685538
1000
ACAD_MTEXT_DEFINED_HEIGHT_END
  0
MTEXT
  5
401
102
{ACAD_XDICTIONARY
360
50D
102
}
330
37
100
AcDbEntity
  8
0
100
AcDbMText
 10
-4.746231786270982
 20
-149.7056315095531
 30
0.0
 40
7.0
 41
160.9235756776006
 71
     1
 72
     5
  1
H0601108\PSattelst\U+00FCck MW 33x33
 73
     1
 44
1.0
1001
ACAD
1000
MTEXTBEGIN
1070
    73
1070
     1
1070
    44
1040
1.0
1070
    74
1070
     0
1000
MTEXTEND
1000
ACAD_MTEXT_DEFINED_HEIGHT_BEGIN
1070
    46
1040
44.74759079685538
1000
ACAD_MTEXT_DEFINED_HEIGHT_END
  0
MTEXT
  5
402
102
{ACAD_XDICTIONARY
360
50F
102
}
330
37
100
AcDbEntity
  8
0
100
AcDbMText
 10
193.9034409211044
 20
-149.7056315095531
 30
0.0
 40
7.0
 41
160.9235756776006
 71
     1
 72
     5
  1
H0601109\PSattelst\U+00FCck MW 33x11 
 73
     1
 44
1.0
1001
ACAD
1000
MTEXTBEGIN
1070
    73
1070
     1
1070
    44
1040
1.0
1070
    74
1070
     0
1000
MTEXTEND
1000
ACAD_MTEXT_DEFINED_HEIGHT_BEGIN
1070
    46
1040
44.74759079685538
1000
ACAD_MTEXT_DEFINED_HEIGHT_END
  0
MTEXT
  5
403
102
{ACAD_XDICTIONARY
360
511
102
}
330
37
100
AcDbEntity
  8
0
100
AcDbMText
 10
392.0581886372943
 20
-149.7056315095531
 30
0.0
 40
7.0
 41
160.9235756776006
 71
     1
 72
     5
  1
H0601110\PSattelst\U+00FCck MW 22x22
 73
     1
 44
1.0
1001
ACAD
1000
MTEXTBEGIN
1070
    73
1070
     1
1070
    44
1040
1.0
1070
    74
1070
     0
1000
MTEXTEND
1000
ACAD_MTEXT_DEFINED_HEIGHT_BEGIN
1070
    46
1040
44.74759079685538
1000
ACAD_MTEXT_DEFINED_HEIGHT_END
  0
MTEXT
  5
404
102
{ACAD_XDICTIONARY
360
513
102
}
330
37
100
AcDbEntity
  8
0
100
AcDbMText
 10
593.0262297377221
 20
-149.7056315095531
 30
0.0
 40
7.0
 41
160.9235756776006
 71
     1
 72
     5
  1
H0601116\PFinger f\U+00FCr Doppelrostklammer
 73
     1
 44
1.0
1001
ACAD
1000
MTEXTBEGIN
1070
    73
1070
     1
1070
    44
1040
1.0
1070
    74
1070
     0
1000
MTEXTEND
1000
ACAD_MTEXT_DEFINED_HEIGHT_BEGIN
1070
    46
1040
44.74759079685538
1000
ACAD_MTEXT_DEFINED_HEIGHT_END
  0
MTEXT
  5
410
102
{ACAD_XDICTIONARY
360
515
102
}
330
37
100
AcDbEntity
  8
0
100
AcDbMText
 10
847.4344588761162
 20
58.33253326387148
 30
0.0
 40
7.0
 41
160.9235756776006
 71
     1
 72
     5
  1
H0601113\PSicherungshacken f\U+00FCr MW 22 u. 33\Pmit Montagematerial
 73
     1
 44
1.0
1001
ACAD
1000
MTEXTBEGIN
1070
    73
1070
     1
1070
    44
1040
1.0
1070
    74
1070
     0
1000
MTEXTEND
1000
ACAD_MTEXT_DEFINED_HEIGHT_BEGIN
1070
    46
1040
44.74759079685538
1000
ACAD_MTEXT_DEFINED_HEIGHT_END
  0
MTEXT
  5
425
102
{ACAD_XDICTIONARY
360
517
102
}
330
37
100
AcDbEntity
  8
0
100
AcDbMText
 10
1051.908462284895
 20
58.33253326387148
 30
0.0
 40
7.0
 41
160.9235756776006
 71
     1
 72
     5
  1
H0601113\PSicherungshacken f\U+00FCr MW 22 u. 33\Pohne Montagematerial
 73
     1
 44
1.0
1001
ACAD
1000
MTEXTBEGIN
1070
    73
1070
     1
1070
    44
1040
1.0
1070
    74
1070
     0
1000
MTEXTEND
1000
ACAD_MTEXT_DEFINED_HEIGHT_BEGIN
1070
    46
1040
44.74759079685538
1000
ACAD_MTEXT_DEFINED_HEIGHT_END
  0
LWPOLYLINE
  5
434
330
37
100
AcDbEntity
  8
ISO-25
100
AcDbPolyline
 90
        4
 70
     1
 43
0.0
 10
555.14168836329
 20
-89.82191408223753
 10
755.14168836329
 20
-89.82191408223753
 10
755.14168836329
 20
70.17808591776248
 10
555.14168836329
 20
70.17808591776248
  0
LWPOLYLINE
  5
435
330
37
100
AcDbEntity
  8
ISO-25
100
AcDbPolyline
 90
        4
 70
     1
 43
0.0
 10
355.1416883632901
 20
-89.82191408223753
 10
555.14168836329
 20
-89.82191408223753
 10
555.14168836329
 20
70.17808591776248
 10
355.1416883632901
 20
70.17808591776248
  0
LWPOLYLINE
  5
436
330
37
100
AcDbEntity
  8
ISO-25
100
AcDbPolyline
 90
        4
 70
     1
 43
0.0
 10
155.1416883632901
 20
-89.82191408223753
 10
355.1416883632901
 20
-89.82191408223753
 10
355.1416883632901
 20
70.17808591776248
 10
155.1416883632901
 20
70.17808591776248
  0
LWPOLYLINE
  5
437
330
37
100
AcDbEntity
  8
ISO-25
100
AcDbPolyline
 90
        4
 70
     1
 43
0.0
 10
-44.85831163670991
 20
-89.82191408223753
 10
155.1416883632901
 20
-89.82191408223753
 10
155.1416883632901
 20
70.17808591776248
 10
-44.85831163670991
 20
70.17808591776248
  0
LWPOLYLINE
  5
438
330
37
100
AcDbEntity
  8
ISO-25
100
AcDbPolyline
 90
        4
 70
     1
 43
0.0
 10
555.14168836329
 20
-249.8219140822375
 10
755.14168836329
 20
-249.8219140822375
 10
755.14168836329
 20
-89.82191408223753
 10
555.14168836329
 20
-89.82191408223753
  0
LWPOLYLINE
  5
439
330
37
100
AcDbEntity
  8
ISO-25
100
AcDbPolyline
 90
        4
 70
     1
 43
0.0
 10
355.1416883632901
 20
-249.8219140822375
 10
555.14168836329
 20
-249.8219140822375
 10
555.14168836329
 20
-89.82191408223753
 10
355.1416883632901
 20
-89.82191408223753
  0
LWPOLYLINE
  5
43A
330
37
100
AcDbEntity
  8
ISO-25
100
AcDbPolyline
 90
        4
 70
     1
 43
0.0
 10
155.1416883632901
 20
-249.8219140822375
 10
355.1416883632901
 20
-249.8219140822375
 10
355.1416883632901
 20
-89.82191408223753
 10
155.1416883632901
 20
-89.82191408223753
  0
LWPOLYLINE
  5
43B
330
37
100
AcDbEntity
  8
ISO-25
100
AcDbPolyline
 90
        4
 70
     1
 43
0.0
 10
-44.85831163670991
 20
-249.8219140822375
 10
155.1416883632901
 20
-249.8219140822375
 10
155.1416883632901
 20
-89.82191408223753
 10
-44.85831163670991
 20
-89.82191408223753
  0
LWPOLYLINE
  5
43C
330
37
100
AcDbEntity
  8
ISO-25
100
AcDbPolyline
 90
        4
 70
     1
 43
0.0
 10
805.0215401477776
 20
-249.8219140822375
 10
1005.021540147778
 20
-249.8219140822375
 10
1005.021540147778
 20
70.17808591776248
 10
805.0215401477776
 20
70.17808591776248
  0
LWPOLYLINE
  5
444
330
37
100
AcDbEntity
  8
ISO-25
100
AcDbPolyline
 90
        4
 70
     1
 43
0.0
 10
1005.021540147778
 20
-249.8219140822375
 10
1205.021540147777
 20
-249.8219140822375
 10
1205.021540147777
 20
70.17808591776248
 10
1005.021540147778
 20
70.17808591776248
  0
ENDSEC
  0
SECTION
  2
OBJECTS
  0
DICTIONARY
  5
C
330
0
100
AcDbDictionary
281
     1
  3
ACAD_2007HEADERVARS_RT
350
4FD
  3
ACAD_COLOR
350
30
  3
ACAD_GROUP
350
D
  3
ACAD_LAYOUT
350
2F
  3
ACAD_MATERIAL
350
10
  3
ACAD_MLINESTYLE
350
2C
  3
ACAD_PLOTSETTINGS
350
2E
  3
ACAD_PLOTSTYLENAME
350
E
  3
ACAD_TABLESTYLE
350
31
  3
ACAD_VISUALSTYLE
350
14
  3
AcDbVariableDictionary
350
393
  3
DWGPROPS
350
4FC
  0
DICTIONARY
  5
370
330
8
100
AcDbDictionary
280
     1
281
     1
  0
DICTIONARY
  5
80
330
7F
100
AcDbDictionary
280
     1
281
     1
  3
ACAD_ENHANCEDBLOCK
360
81
  3
AcDbDynamicBlockRoundTripPurgePreventer
360
83
  0
DICTIONARY
  5
8E
330
8D
100
AcDbDictionary
280
     1
281
     1
  0
DICTIONARY
  5
93
330
92
100
AcDbDictionary
280
     1
281
     1
  3
ACAD_ENHANCEDBLOCK
360
94
  3
AcDbDynamicBlockRoundTripPurgePreventer
360
96
  0
DICTIONARY
  5
9C
330
9B
100
AcDbDictionary
280
     1
281
     1
  3
ACAD_ENHANCEDBLOCK
360
9D
  3
AcDbDynamicBlockRoundTripPurgePreventer
360
9F
  0
DICTIONARY
  5
19A
330
D2
100
AcDbDictionary
280
     1
281
     1
  3
ACAD_ENHANCEDBLOCK
360
19B
  3
AcDbDynamicBlockRoundTripPurgePreventer
360
1C9
  0
DICTIONARY
  5
329
330
DD
100
AcDbDictionary
280
     1
281
     1
  0
DICTIONARY
  5
24C
330
EE
100
AcDbDictionary
280
     1
281
     1
  3
ACAD_ENHANCEDBLOCK
360
24D
  3
AcDbDynamicBlockRoundTripPurgePreventer
360
252
  0
DICTIONARY
  5
104
330
103
100
AcDbDictionary
280
     1
281
     1
  3
ACAD_ENHANCEDBLOCK
360
105
  3
AcDbDynamicBlockRoundTripPurgePreventer
360
107
  0
DICTIONARY
  5
33A
330
11A
100
AcDbDictionary
280
     1
281
     1
  3
ACAD_ENHANCEDBLOCK
360
33B
  3
AcDbDynamicBlockRoundTripPurgePreventer
360
359
  0
DICTIONARY
  5
135
330
134
100
AcDbDictionary
280
     1
281
     1
  3
ACAD_ENHANCEDBLOCK
360
136
  3
AcDbDynamicBlockRoundTripPurgePreventer
360
138
  0
DICTIONARY
  5
144
330
143
100
AcDbDictionary
280
     1
281
     1
  0
DICTIONARY
  5
1D1
330
1CA
100
AcDbDictionary
280
     1
281
     1
  0
DICTIONARY
  5
25B
330
253
100
AcDbDictionary
280
     1
281
     1
  0
DICTIONARY
  5
266
330
25E
100
AcDbDictionary
280
     1
281
     1
  0
DICTIONARY
  5
273
330
272
100
AcDbDictionary
280
     1
281
     1
  3
ACAD_ENHANCEDBLOCK
360
274
  3
AcDbDynamicBlockRoundTripPurgePreventer
360
276
  0
DICTIONARY
  5
286
330
285
100
AcDbDictionary
280
     1
281
     1
  0
DICTIONARY
  5
2B1
330
2B0
100
AcDbDictionary
280
     1
281
     1
  0
DICTIONARY
  5
367
330
35A
100
AcDbDictionary
280
     1
281
     1
  0
DICTIONARY
  5
323
330
322
100
AcDbDictionary
280
     1
281
     1
  3
AcDbBlockRepresentation
360
324
  0
DICTIONARY
  5
331
330
330
100
AcDbDictionary
280
     1
281
     1
  3
AcDbBlockRepresentation
360
332
  0
DICTIONARY
  5
2B4
330
2B3
100
AcDbDictionary
280
     1
281
     1
  3
AcDbBlockRepresentation
360
2B5
  0
DICTIONARY
  5
35E
330
35D
100
AcDbDictionary
280
     1
281
     1
  3
AcDbBlockRepresentation
360
35F
  0
DICTIONARY
  5
353
330
133
100
AcDbDictionary
280
     1
281
     1
  3
AcDbBlockRepresentation
360
354
  0
DICTIONARY
  5
1C3
330
192
100
AcDbDictionary
280
     1
281
     1
  3
AcDbBlockRepresentation
360
1C4
  0
DICTIONARY
  5
21E
330
1F4
100
AcDbDictionary
280
     1
281
     1
  3
AcDbBlockRepresentation
360
21F
  0
DICTIONARY
  5
50D
330
401
100
AcDbDictionary
280
     1
281
     1
  3
ACAD_MTEXT_RT
360
50E
  0
DICTIONARY
  5
50F
330
402
100
AcDbDictionary
280
     1
281
     1
  3
ACAD_MTEXT_RT
360
510
  0
DICTIONARY
  5
511
330
403
100
AcDbDictionary
280
     1
281
     1
  3
ACAD_MTEXT_RT
360
512
  0
DICTIONARY
  5
513
330
404
100
AcDbDictionary
280
     1
281
     1
  3
ACAD_MTEXT_RT
360
514
  0
DICTIONARY
  5
515
330
410
100
AcDbDictionary
280
     1
281
     1
  3
ACAD_MTEXT_RT
360
516
  0
DICTIONARY
  5
517
330
425
100
AcDbDictionary
280
     1
281
     1
  3
ACAD_MTEXT_RT
360
518
  0
DICTIONARY
  5
4FD
102
{ACAD_REACTORS
330
C
102
}
330
C
100
AcDbDictionary
281
     1
  3
DIMJOGANG
350
4FE
  0
DICTIONARY
  5
30
102
{ACAD_REACTORS
330
C
102
}
330
C
100
AcDbDictionary
281
     1
  0
DICTIONARY
  5
D
102
{ACAD_REACTORS
330
C
102
}
330
C
100
AcDbDictionary
281
     1
  0
DICTIONARY
  5
2F
102
{ACAD_REACTORS
330
C
102
}
330
C
100
AcDbDictionary
281
     1
  3
Layout1
350
36
  3
Layout2
350
3E
  3
Model
350
3A
  0
DICTIONARY
  5
10
102
{ACAD_REACTORS
330
C
102
}
330
C
100
AcDbDictionary
281
     1
  3
ByBlock
350
12
  3
ByLayer
350
11
  3
Global
350
13
  0
DICTIONARY
  5
2C
102
{ACAD_REACTORS
330
C
102
}
330
C
100
AcDbDictionary
281
     1
  3
Standard
350
2D
  0
DICTIONARY
  5
2E
102
{ACAD_REACTORS
330
C
102
}
330
C
100
AcDbDictionary
281
     1
  0
ACDBDICTIONARYWDFLT
  5
E
102
{ACAD_REACTORS
330
C
102
}
330
C
100
AcDbDictionary
281
     1
  3
Normal
350
F
100
AcDbDictionaryWithDefault
340
F
  0
DICTIONARY
  5
31
102
{ACAD_REACTORS
330
C
102
}
330
C
100
AcDbDictionary
281
     1
  3
Standard
350
32
  0
DICTIONARY
  5
14
102
{ACAD_REACTORS
330
C
102
}
330
C
100
AcDbDictionary
281
     1
  3
2dWireframe
350
1A
  3
3D Hidden
350
1C
  3
3dWireframe
350
1B
  3
Basic
350
19
  3
Brighten
350
20
  3
ColorChange
350
24
  3
Conceptual
350
1D
  3
Dim
350
1F
  3
Facepattern
350
23
  3
Flat
350
15
  3
FlatWithEdges
350
16
  3
Gouraud
350
17
  3
GouraudWithEdges
350
18
  3
Linepattern
350
22
  3
Realistic
350
1E
  3
Thicken
350
21
  0
DICTIONARY
  5
393
102
{ACAD_REACTORS
330
C
102
}
330
C
100
AcDbDictionary
281
     1
  3
CTABLESTYLE
350
394
  3
DIMASSOC
350
398
  3
HIDETEXT
350
397
  3
INDEXCTL
350
396
  3
SORTENTS
350
395
  0
XRECORD
  5
4FC
102
{ACAD_REACTORS
330
C
102
}
330
C
100
AcDbXrecord
280
     1
  1
DWGPROPS COOKIE
  2

  3

  4

  6

  7

  8
dober
  9

300
=
301
=
302
=
303
=
304
=
305
=
306
=
307
=
308
=
309
=
 40
0.0821893055555556
 41
2454559.610192616
 42
2454788.622817743
  1

 90
        0
  0
ACAD_EVALUATION_GRAPH
  5
81
102
{ACAD_REACTORS
330
80
102
}
330
80
100
AcDbEvalGraph
 96
        1
 97
        1
 91
        0
 93
       32
 95
        1
360
82
 92
       -1
 92
       -1
 92
       -1
 92
       -1
  0
ACDB_DYNAMICBLOCKPURGEPREVENTER_VERSION
  5
83
102
{ACAD_REACTORS
330
80
102
}
330
80
100
AcDbDynamicBlockPurgePreventer
 70
     1
  0
ACAD_EVALUATION_GRAPH
  5
94
102
{ACAD_REACTORS
330
93
102
}
330
93
100
AcDbEvalGraph
 96
        1
 97
        1
 91
        0
 93
       32
 95
        1
360
95
 92
       -1
 92
       -1
 92
       -1
 92
       -1
  0
ACDB_DYNAMICBLOCKPURGEPREVENTER_VERSION
  5
96
102
{ACAD_REACTORS
330
93
102
}
330
93
100
AcDbDynamicBlockPurgePreventer
 70
     1
  0
ACAD_EVALUATION_GRAPH
  5
9D
102
{ACAD_REACTORS
330
9C
102
}
330
9C
100
AcDbEvalGraph
 96
        1
 97
        1
 91
        0
 93
       32
 95
        1
360
9E
 92
       -1
 92
       -1
 92
       -1
 92
       -1
  0
ACDB_DYNAMICBLOCKPURGEPREVENTER_VERSION
  5
9F
102
{ACAD_REACTORS
330
9C
102
}
330
9C
100
AcDbDynamicBlockPurgePreventer
 70
     1
  0
ACAD_EVALUATION_GRAPH
  5
19B
102
{ACAD_REACTORS
330
19A
102
}
330
19A
100
AcDbEvalGraph
 96
        1
 97
        1
 91
        0
 93
       32
 95
        1
360
19C
 92
       -1
 92
       -1
 92
       -1
 92
       -1
  0
ACDB_DYNAMICBLOCKPURGEPREVENTER_VERSION
  5
1C9
102
{ACAD_REACTORS
330
19A
102
}
330
19A
100
AcDbDynamicBlockPurgePreventer
 70
     1
  0
ACAD_EVALUATION_GRAPH
  5
24D
102
{ACAD_REACTORS
330
24C
102
}
330
24C
100
AcDbEvalGraph
 96
        1
 97
        1
 91
        0
 93
       32
 95
        1
360
24E
 92
       -1
 92
       -1
 92
       -1
 92
       -1
  0
ACDB_DYNAMICBLOCKPURGEPREVENTER_VERSION
  5
252
102
{ACAD_REACTORS
330
24C
102
}
330
24C
100
AcDbDynamicBlockPurgePreventer
 70
     1
  0
ACAD_EVALUATION_GRAPH
  5
105
102
{ACAD_REACTORS
330
104
102
}
330
104
100
AcDbEvalGraph
 96
        1
 97
        1
 91
        0
 93
       32
 95
        1
360
106
 92
       -1
 92
       -1
 92
       -1
 92
       -1
  0
ACDB_DYNAMICBLOCKPURGEPREVENTER_VERSION
  5
107
102
{ACAD_REACTORS
330
104
102
}
330
104
100
AcDbDynamicBlockPurgePreventer
 70
     1
  0
ACAD_EVALUATION_GRAPH
  5
33B
102
{ACAD_REACTORS
330
33A
102
}
330
33A
100
AcDbEvalGraph
 96
        1
 97
        1
 91
        0
 93
       32
 95
        1
360
33C
 92
       -1
 92
       -1
 92
       -1
 92
       -1
  0
ACDB_DYNAMICBLOCKPURGEPREVENTER_VERSION
  5
359
102
{ACAD_REACTORS
330
33A
102
}
330
33A
100
AcDbDynamicBlockPurgePreventer
 70
     1
  0
ACAD_EVALUATION_GRAPH
  5
136
102
{ACAD_REACTORS
330
135
102
}
330
135
100
AcDbEvalGraph
 96
        1
 97
        1
 91
        0
 93
       32
 95
        1
360
137
 92
       -1
 92
       -1
 92
       -1
 92
       -1
  0
ACDB_DYNAMICBLOCKPURGEPREVENTER_VERSION
  5
138
102
{ACAD_REACTORS
330
135
102
}
330
135
100
AcDbDynamicBlockPurgePreventer
 70
     1
  0
ACAD_EVALUATION_GRAPH
  5
274
102
{ACAD_REACTORS
330
273
102
}
330
273
100
AcDbEvalGraph
 96
        1
 97
        1
 91
        0
 93
       32
 95
        1
360
275
 92
       -1
 92
       -1
 92
       -1
 92
       -1
  0
ACDB_DYNAMICBLOCKPURGEPREVENTER_VERSION
  5
276
102
{ACAD_REACTORS
330
273
102
}
330
273
100
AcDbDynamicBlockPurgePreventer
 70
     1
  0
DICTIONARY
  5
324
102
{ACAD_REACTORS
330
323
102
}
330
323
100
AcDbDictionary
280
     1
281
     1
  3
AcDbRepData
360
325
  3
AppDataCache
360
326
  0
DICTIONARY
  5
332
102
{ACAD_REACTORS
330
331
102
}
330
331
100
AcDbDictionary
280
     1
281
     1
  3
AcDbRepData
360
333
  3
AppDataCache
360
334
  0
DICTIONARY
  5
2B5
102
{ACAD_REACTORS
330
2B4
102
}
330
2B4
100
AcDbDictionary
280
     1
281
     1
  3
AcDbRepData
360
2B6
  3
AppDataCache
360
2B7
  0
DICTIONARY
  5
35F
102
{ACAD_REACTORS
330
35E
102
}
330
35E
100
AcDbDictionary
280
     1
281
     1
  3
AcDbRepData
360
360
  3
AppDataCache
360
361
  0
DICTIONARY
  5
354
102
{ACAD_REACTORS
330
353
102
}
330
353
100
AcDbDictionary
280
     1
281
     1
  3
AcDbRepData
360
355
  3
AppDataCache
360
36A
  0
DICTIONARY
  5
1C4
102
{ACAD_REACTORS
330
1C3
102
}
330
1C3
100
AcDbDictionary
280
     1
281
     1
  3
AcDbRepData
360
1C5
  3
AppDataCache
360
1DA
  0
DICTIONARY
  5
21F
102
{ACAD_REACTORS
330
21E
102
}
330
21E
100
AcDbDictionary
280
     1
281
     1
  3
AcDbRepData
360
220
  3
AppDataCache
360
26F
  0
XRECORD
  5
50E
102
{ACAD_REACTORS
330
50D
102
}
330
50D
100
AcDbXrecord
280
     1
 40
49044.0
  1
H0601108\PSattelstück MW 33x33
  0
XRECORD
  5
510
102
{ACAD_REACTORS
330
50F
102
}
330
50F
100
AcDbXrecord
280
     1
 40
50094.0
  1
H0601109\PSattelstück MW 33x11 
  0
XRECORD
  5
512
102
{ACAD_REACTORS
330
511
102
}
330
511
100
AcDbXrecord
280
     1
 40
48851.0
  1
H0601110\PSattelstück MW 22x22
  0
XRECORD
  5
514
102
{ACAD_REACTORS
330
513
102
}
330
513
100
AcDbXrecord
280
     1
 40
93287.0
  1
H0601116\PFinger für Doppelrostklammer
  0
XRECORD
  5
516
102
{ACAD_REACTORS
330
515
102
}
330
515
100
AcDbXrecord
280
     1
 40
208914.0
  1
H0601113\PSicherungshacken für MW 22 u. 33\Pmit Montagematerial
  0
XRECORD
  5
518
102
{ACAD_REACTORS
330
517
102
}
330
517
100
AcDbXrecord
280
     1
 40
215694.0
  1
H0601113\PSicherungshacken für MW 22 u. 33\Pohne Montagematerial
  0
XRECORD
  5
4FE
102
{ACAD_REACTORS
330
4FD
102
}
330
4FD
100
AcDbXrecord
280
     1
 40
1.570796326794896
  0
LAYOUT
  5
36
102
{ACAD_XDICTIONARY
360
507
102
}
102
{ACAD_REACTORS
330
2F
102
}
330
2F
100
AcDbPlotSettings
  1

  2
HP-5100
  4

  6

 40
0.0
 41
0.0
 42
0.0
 43
0.0
 44
0.0
 45
0.0
 46
0.0
 47
0.0
 48
0.0
 49
0.0
140
0.0
141
0.0
142
1.0
143
1.0
 70
   688
 72
     0
 73
     0
 74
     5
  7

 75
    16
147
1.0
148
0.0
149
0.0
100
AcDbLayout
  1
Layout1
 70
     1
 71
     1
 10
0.0
 20
0.0
 11
420.0
 21
297.0
 12
0.0
 22
0.0
 32
0.0
 14
1.000000000000000E+20
 24
1.000000000000000E+20
 34
1.000000000000000E+20
 15
-1.000000000000000E+20
 25
-1.000000000000000E+20
 35
-1.000000000000000E+20
146
0.0
 13
0.0
 23
0.0
 33
0.0
 16
1.0
 26
0.0
 36
0.0
 17
0.0
 27
1.0
 37
0.0
 76
     0
330
33
  0
LAYOUT
  5
3E
102
{ACAD_XDICTIONARY
360
50B
102
}
102
{ACAD_REACTORS
330
2F
102
}
330
2F
100
AcDbPlotSettings
  1

  2
HP-5100
  4

  6

 40
0.0
 41
0.0
 42
0.0
 43
0.0
 44
0.0
 45
0.0
 46
0.0
 47
0.0
 48
0.0
 49
0.0
140
0.0
141
0.0
142
1.0
143
1.0
 70
   688
 72
     0
 73
     0
 74
     5
  7

 75
    16
147
1.0
148
0.0
149
0.0
100
AcDbLayout
  1
Layout2
 70
     1
 71
     2
 10
0.0
 20
0.0
 11
12.0
 21
9.0
 12
0.0
 22
0.0
 32
0.0
 14
0.0
 24
0.0
 34
0.0
 15
0.0
 25
0.0
 35
0.0
146
0.0
 13
0.0
 23
0.0
 33
0.0
 16
1.0
 26
0.0
 36
0.0
 17
0.0
 27
1.0
 37
0.0
 76
     0
330
3B
  0
LAYOUT
  5
3A
102
{ACAD_XDICTIONARY
360
509
102
}
102
{ACAD_REACTORS
330
2F
102
}
330
2F
100
AcDbPlotSettings
  1

  2
HP-5100
  4

  6

 40
0.0
 41
0.0
 42
0.0
 43
0.0
 44
0.0
 45
0.0
 46
0.0
 47
0.0
 48
0.0
 49
0.0
140
0.0
141
0.0
142
1.0
143
1.0
 70
  1712
 72
     0
 73
     0
 74
     0
  7

 75
     0
147
1.0
148
0.0
149
0.0
100
AcDbLayout
  1
Model
 70
     1
 71
     0
 10
0.0
 20
0.0
 11
12.0
 21
9.0
 12
0.0
 22
0.0
 32
0.0
 14
0.0
 24
0.0
 34
0.0
 15
0.0
 25
0.0
 35
0.0
146
0.0
 13
0.0
 23
0.0
 33
0.0
 16
1.0
 26
0.0
 36
0.0
 17
0.0
 27
1.0
 37
0.0
 76
     0
330
37
331
28
  0
MATERIAL
  5
12
102
{ACAD_XDICTIONARY
360
501
102
}
102
{ACAD_REACTORS
330
10
102
}
330
10
100
AcDbMaterial
  1
ByBlock
  0
MATERIAL
  5
11
102
{ACAD_XDICTIONARY
360
4FF
102
}
102
{ACAD_REACTORS
330
10
102
}
330
10
100
AcDbMaterial
  1
ByLayer
  0
MATERIAL
  5
13
102
{ACAD_XDICTIONARY
360
503
102
}
102
{ACAD_REACTORS
330
10
102
}
330
10
100
AcDbMaterial
  1
Global
  0
MLINESTYLE
  5
2D
102
{ACAD_REACTORS
330
2C
102
}
330
2C
100
AcDbMlineStyle
  2
STANDARD
 70
     0
  3

 62
   256
 51
90.0
 52
90.0
 71
     2
 49
0.5
 62
   256
  6
BYLAYER
 49
-0.5
 62
   256
  6
BYLAYER
  0
ACDBPLACEHOLDER
  5
F
102
{ACAD_REACTORS
330
E
102
}
330
E
  0
TABLESTYLE
  5
32
102
{ACAD_XDICTIONARY
360
505
102
}
102
{ACAD_REACTORS
330
31
102
}
330
31
100
AcDbTableStyle
  3
Standard
 70
     0
 71
     0
 40
1.5
 41
1.5
280
     0
281
     0
  7
Standard
140
4.5
170
     2
 62
     0
 63
     7
283
     0
274
    -2
284
     1
 64
     0
275
    -2
285
     1
 65
     0
276
    -2
286
     1
 66
     0
277
    -2
287
     1
 67
     0
278
    -2
288
     1
 68
     0
279
    -2
289
     1
 69
     0
  7
Standard
140
6.0
170
     5
 62
     0
 63
     7
283
     0
274
    -2
284
     1
 64
     0
275
    -2
285
     1
 65
     0
276
    -2
286
     1
 66
     0
277
    -2
287
     1
 67
     0
278
    -2
288
     1
 68
     0
279
    -2
289
     1
 69
     0
  7
Standard
140
4.5
170
     5
 62
     0
 63
     7
283
     0
274
    -2
284
     1
 64
     0
275
    -2
285
     1
 65
     0
276
    -2
286
     1
 66
     0
277
    -2
287
     1
 67
     0
278
    -2
288
     1
 68
     0
279
    -2
289
     1
 69
     0
  0
VISUALSTYLE
  5
1A
102
{ACAD_REACTORS
330
14
102
}
330
14
100
AcDbVisualStyle
  2
2dWireframe
 70
     4
 71
     0
 72
     2
 73
     0
 90
        0
 40
-0.6
 41
-30.0
 62
     5
 63
     7
 74
     1
 91
        4
 64
     7
 65
   257
 75
     1
175
     1
 42
1.0
 92
        0
 66
   257
 43
1.0
 76
     1
 77
     6
 78
     2
 67
     7
 79
     5
170
     0
171
     0
290
     0
174
     0
 93
        1
 44
0.0
173
     0
291
     0
 45
0.0
1001
ACAD
1000
AcDbSavedByObjectVersion
1070
     0
  0
VISUALSTYLE
  5
1C
102
{ACAD_REACTORS
330
14
102
}
330
14
100
AcDbVisualStyle
  2
3D Hidden
 70
     6
 71
     1
 72
     2
 73
     2
 90
        0
 40
-0.6
 41
-30.0
 62
     5
 63
     7
 74
     2
 91
        2
 64
     7
 65
   257
 75
     2
175
     1
 42
40.0
 92
        0
 66
   257
 43
1.0
 76
     1
 77
     6
 78
     2
 67
     7
 79
     3
170
     0
171
     0
290
     0
174
     0
 93
        1
 44
0.0
173
     0
291
     0
 45
0.0
1001
ACAD
1000
AcDbSavedByObjectVersion
1070
     0
  0
VISUALSTYLE
  5
1B
102
{ACAD_REACTORS
330
14
102
}
330
14
100
AcDbVisualStyle
  2
3dWireframe
 70
     5
 71
     0
 72
     2
 73
     0
 90
        0
 40
-0.6
 41
-30.0
 62
     5
 63
     7
 74
     1
 91
        4
 64
     7
 65
   257
 75
     1
175
     1
 42
1.0
 92
        0
 66
   257
 43
1.0
 76
     1
 77
     6
 78
     2
 67
     7
 79
     5
170
     0
171
     0
290
     0
174
     0
 93
        1
 44
0.0
173
     0
291
     0
 45
0.0
1001
ACAD
1000
AcDbSavedByObjectVersion
1070
     0
  0
VISUALSTYLE
  5
19
102
{ACAD_REACTORS
330
14
102
}
330
14
100
AcDbVisualStyle
  2
Basic
 70
     7
 71
     1
 72
     0
 73
     1
 90
        0
 40
-0.6
 41
-30.0
 62
     5
 63
     7
 74
     0
 91
        4
 64
     7
 65
   257
 75
     1
175
     1
 42
1.0
 92
        8
 66
     7
 43
1.0
 76
     1
 77
     6
 78
     2
 67
     7
 79
     5
170
     0
171
     0
290
     0
174
     0
 93
        1
 44
0.0
173
     0
291
     1
 45
0.0
1001
ACAD
1000
AcDbSavedByObjectVersion
1070
     0
  0
VISUALSTYLE
  5
20
102
{ACAD_REACTORS
330
14
102
}
330
14
100
AcDbVisualStyle
  2
Brighten
 70
    12
 71
     2
 72
     2
 73
     0
 90
        0
 40
-0.6
 41
-30.0
 62
     5
 63
     7
 74
     1
 91
        4
 64
     7
 65
   257
 75
     1
175
     1
 42
1.0
 92
        8
 66
     7
 43
1.0
 76
     1
 77
     6
 78
     2
 67
     7
 79
     5
170
     0
171
     0
290
     0
174
     0
 93
        1
 44
50.0
173
     0
291
     1
 45
0.0
1001
ACAD
1000
AcDbSavedByObjectVersion
1070
     0
  0
VISUALSTYLE
  5
24
102
{ACAD_REACTORS
330
14
102
}
330
14
100
AcDbVisualStyle
  2
ColorChange
 70
    16
 71
     2
 72
     2
 73
     3
 90
        0
 40
-0.6
 41
-30.0
 62
     5
 63
     8
 74
     1
 91
        4
 64
     7
 65
   257
 75
     1
175
     1
 42
1.0
 92
        8
 66
     8
 43
1.0
 76
     1
 77
     6
 78
     2
 67
     7
 79
     5
170
     0
171
     0
290
     0
174
     0
 93
        1
 44
0.0
173
     0
291
     1
 45
0.0
1001
ACAD
1000
AcDbSavedByObjectVersion
1070
     0
  0
VISUALSTYLE
  5
1D
102
{ACAD_REACTORS
330
14
102
}
330
14
100
AcDbVisualStyle
  2
Conceptual
 70
     9
 71
     3
 72
     2
 73
     0
 90
        0
 40
-0.6
 41
-30.0
 62
     5
 63
     7
 74
     2
 91
        2
 64
     7
 65
   257
 75
     1
175
     1
 42
40.0
 92
        8
 66
     7
 43
1.0
 76
     1
 77
     6
 78
     2
 67
     7
 79
     3
170
     0
171
     0
290
     0
174
     0
 93
        1
 44
0.0
173
     0
291
     0
 45
0.0
1001
ACAD
1000
AcDbSavedByObjectVersion
1070
     0
  0
VISUALSTYLE
  5
1F
102
{ACAD_REACTORS
330
14
102
}
330
14
100
AcDbVisualStyle
  2
Dim
 70
    11
 71
     2
 72
     2
 73
     0
 90
        0
 40
-0.6
 41
-30.0
 62
     5
 63
     7
 74
     1
 91
        4
 64
     7
 65
   257
 75
     1
175
     1
 42
1.0
 92
        8
 66
     7
 43
1.0
 76
     1
 77
     6
 78
     2
 67
     7
 79
     5
170
     0
171
     0
290
     0
174
     0
 93
        1
 44
-50.0
173
     0
291
     1
 45
0.0
1001
ACAD
1000
AcDbSavedByObjectVersion
1070
     0
  0
VISUALSTYLE
  5
23
102
{ACAD_REACTORS
330
14
102
}
330
14
100
AcDbVisualStyle
  2
Facepattern
 70
    15
 71
     2
 72
     2
 73
     0
 90
        0
 40
-0.6
 41
-30.0
 62
     5
 63
     7
 74
     1
 91
        4
 64
     7
 65
   257
 75
     1
175
     1
 42
1.0
 92
        8
 66
     7
 43
1.0
 76
     1
 77
     6
 78
     2
 67
     7
 79
     5
170
     0
171
     0
290
     0
174
     0
 93
        1
 44
0.0
173
     0
291
     1
 45
0.0
1001
ACAD
1000
AcDbSavedByObjectVersion
1070
     0
  0
VISUALSTYLE
  5
15
102
{ACAD_REACTORS
330
14
102
}
330
14
100
AcDbVisualStyle
  2
Flat
 70
     0
 71
     2
 72
     1
 73
     1
 90
        2
 40
-0.6
 41
30.0
 62
     5
 63
     7
 74
     0
 91
        4
 64
     7
 65
   257
 75
     1
175
     1
 42
1.0
 92
        8
 66
     7
 43
1.0
 76
     1
 77
     6
 78
     2
 67
     7
 79
     5
170
     0
171
     0
290
     0
174
     0
 93
       13
 44
0.0
173
     0
291
     1
 45
0.0
1001
ACAD
1000
AcDbSavedByObjectVersion
1070
     0
  0
VISUALSTYLE
  5
16
102
{ACAD_REACTORS
330
14
102
}
330
14
100
AcDbVisualStyle
  2
FlatWithEdges
 70
     1
 71
     2
 72
     1
 73
     1
 90
        2
 40
-0.6
 41
30.0
 62
     5
 63
     7
 74
     1
 91
        4
 64
     7
 65
   257
 75
     1
175
     1
 42
1.0
 92
        0
 66
   257
 43
1.0
 76
     1
 77
     6
 78
     2
 67
     7
 79
     5
170
     0
171
     0
290
     0
174
     0
 93
       13
 44
0.0
173
     0
291
     1
 45
0.0
1001
ACAD
1000
AcDbSavedByObjectVersion
1070
     0
  0
VISUALSTYLE
  5
17
102
{ACAD_REACTORS
330
14
102
}
330
14
100
AcDbVisualStyle
  2
Gouraud
 70
     2
 71
     2
 72
     2
 73
     1
 90
        2
 40
-0.6
 41
30.0
 62
     5
 63
     7
 74
     0
 91
        4
 64
     7
 65
   257
 75
     1
175
     1
 42
1.0
 92
        0
 66
     7
 43
1.0
 76
     1
 77
     6
 78
     2
 67
     7
 79
     5
170
     0
171
     0
290
     0
174
     0
 93
       13
 44
0.0
173
     0
291
     1
 45
0.0
1001
ACAD
1000
AcDbSavedByObjectVersion
1070
     0
  0
VISUALSTYLE
  5
18
102
{ACAD_REACTORS
330
14
102
}
330
14
100
AcDbVisualStyle
  2
GouraudWithEdges
 70
     3
 71
     2
 72
     2
 73
     1
 90
        2
 40
-0.6
 41
30.0
 62
     5
 63
     7
 74
     1
 91
        4
 64
     7
 65
   257
 75
     1
175
     1
 42
1.0
 92
        0
 66
   257
 43
1.0
 76
     1
 77
     6
 78
     2
 67
     7
 79
     5
170
     0
171
     0
290
     0
174
     0
 93
       13
 44
0.0
173
     0
291
     1
 45
0.0
1001
ACAD
1000
AcDbSavedByObjectVersion
1070
     0
  0
VISUALSTYLE
  5
22
102
{ACAD_REACTORS
330
14
102
}
330
14
100
AcDbVisualStyle
  2
Linepattern
 70
    14
 71
     2
 72
     2
 73
     0
 90
        0
 40
-0.6
 41
-30.0
 62
     5
 63
     7
 74
     1
 91
        4
 64
     7
 65
   257
 75
     7
175
     7
 42
1.0
 92
        8
 66
     7
 43
1.0
 76
     1
 77
     6
 78
     2
 67
     7
 79
     5
170
     0
171
     0
290
     0
174
     0
 93
        1
 44
0.0
173
     0
291
     1
 45
0.0
1001
ACAD
1000
AcDbSavedByObjectVersion
1070
     0
  0
VISUALSTYLE
  5
1E
102
{ACAD_REACTORS
330
14
102
}
330
14
100
AcDbVisualStyle
  2
Realistic
 70
     8
 71
     2
 72
     2
 73
     0
 90
        0
 40
-0.6
 41
-30.0
 62
     5
 63
     7
 74
     1
 91
        0
 64
     7
 65
   257
 75
     1
175
     1
 42
1.0
 92
        8
 66
     8
 43
1.0
 76
     1
 77
     6
 78
     2
 67
     7
 79
     5
170
     0
171
     0
290
     0
174
     0
 93
       13
 44
0.0
173
     0
291
     0
 45
0.0
1001
ACAD
1000
AcDbSavedByObjectVersion
1070
     0
  0
VISUALSTYLE
  5
21
102
{ACAD_REACTORS
330
14
102
}
330
14
100
AcDbVisualStyle
  2
Thicken
 70
    13
 71
     2
 72
     2
 73
     0
 90
        0
 40
-0.6
 41
-30.0
 62
     5
 63
     7
 74
     1
 91
        4
 64
     7
 65
   257
 75
     1
175
     1
 42
1.0
 92
       12
 66
     7
 43
1.0
 76
     1
 77
     6
 78
     2
 67
     7
 79
     5
170
     0
171
     0
290
     0
174
     0
 93
        1
 44
0.0
173
     0
291
     1
 45
0.0
1001
ACAD
1000
AcDbSavedByObjectVersion
1070
     0
  0
DICTIONARYVAR
  5
394
102
{ACAD_REACTORS
330
393
102
}
330
393
100
DictionaryVariables
280
     0
  1
STANDARD
  0
DICTIONARYVAR
  5
398
102
{ACAD_REACTORS
330
393
102
}
330
393
100
DictionaryVariables
280
     0
  1
2
  0
DICTIONARYVAR
  5
397
102
{ACAD_REACTORS
330
393
102
}
330
393
100
DictionaryVariables
280
     0
  1
1
  0
DICTIONARYVAR
  5
396
102
{ACAD_REACTORS
330
393
102
}
330
393
100
DictionaryVariables
280
     0
  1
0
  0
DICTIONARYVAR
  5
395
102
{ACAD_REACTORS
330
393
102
}
330
393
100
DictionaryVariables
280
     0
  1
127
  0
BLOCKBASEPOINTPARAMETER
  5
82
330
81
100
AcDbEvalExpr
 90
        1
 98
       27
 99
        2
100
AcDbBlockElement
300
Basispunkt
 98
       25
 99
      104
1071
        0
100
AcDbBlockParameter
280
     1
281
     0
100
AcDbBlock1PtParameter
1010
0.0
1020
0.0
1030
0.0
 93
        0
170
     0
171
     0
100
AcDbBlockBasepointParameter
1011
0.0
1021
0.0
1031
0.0
1012
0.0
1022
0.0
1032
0.0
  0
BLOCKBASEPOINTPARAMETER
  5
95
330
94
100
AcDbEvalExpr
 90
        1
 98
       27
 99
        2
100
AcDbBlockElement
300
Basispunkt
 98
       25
 99
      104
1071
        0
100
AcDbBlockParameter
280
     1
281
     0
100
AcDbBlock1PtParameter
1010
0.0
1020
0.0
1030
0.0
 93
        0
170
     0
171
     0
100
AcDbBlockBasepointParameter
1011
0.0
1021
0.0
1031
0.0
1012
0.0
1022
0.0
1032
0.0
  0
BLOCKBASEPOINTPARAMETER
  5
9E
330
9D
100
AcDbEvalExpr
 90
        1
 98
       27
 99
        2
100
AcDbBlockElement
300
Basispunkt
 98
       25
 99
      104
1071
        0
100
AcDbBlockParameter
280
     1
281
     0
100
AcDbBlock1PtParameter
1010
-16.4054732903564
1020
5.567519274880837
1030
0.0
 93
        0
170
     0
171
     0
100
AcDbBlockBasepointParameter
1011
0.0
1021
0.0
1031
0.0
1012
0.0
1022
0.0
1032
0.0
  0
BLOCKBASEPOINTPARAMETER
  5
19C
330
19B
100
AcDbEvalExpr
 90
        1
 98
       27
 99
        2
100
AcDbBlockElement
300
Basispunkt
 98
       25
 99
      104
1071
        0
100
AcDbBlockParameter
280
     1
281
     0
100
AcDbBlock1PtParameter
1010
-6.25
1020
0.0
1030
0.0
 93
        0
170
     0
171
     0
100
AcDbBlockBasepointParameter
1011
0.0
1021
0.0
1031
0.0
1012
0.0
1022
0.0
1032
0.0
  0
BLOCKBASEPOINTPARAMETER
  5
24E
330
24D
100
AcDbEvalExpr
 90
        1
 98
       27
 99
        2
100
AcDbBlockElement
300
Basispunkt
 98
       25
 99
      104
1071
        0
100
AcDbBlockParameter
280
     1
281
     0
100
AcDbBlock1PtParameter
1010
0.0
1020
0.0
1030
0.0
 93
        0
170
     0
171
     0
100
AcDbBlockBasepointParameter
1011
0.0
1021
0.0
1031
0.0
1012
0.0
1022
0.0
1032
0.0
  0
BLOCKBASEPOINTPARAMETER
  5
106
330
105
100
AcDbEvalExpr
 90
        1
 98
       27
 99
        2
100
AcDbBlockElement
300
Basispunkt
 98
       25
 99
      104
1071
        0
100
AcDbBlockParameter
280
     1
281
     0
100
AcDbBlock1PtParameter
1010
0.0
1020
0.0000000000000009
1030
0.0
 93
        0
170
     0
171
     0
100
AcDbBlockBasepointParameter
1011
0.0
1021
0.0000000000000009
1031
0.0
1012
0.0
1022
0.0000000000000009
1032
0.0
  0
BLOCKBASEPOINTPARAMETER
  5
33C
330
33B
100
AcDbEvalExpr
 90
        1
 98
       27
 99
        2
100
AcDbBlockElement
300
Basispunkt
 98
       25
 99
      104
1071
        0
100
AcDbBlockParameter
280
     1
281
     0
100
AcDbBlock1PtParameter
1010
-10.92586574627052
1020
7.481580850118666
1030
0.0
 93
        0
170
     0
171
     0
100
AcDbBlockBasepointParameter
1011
0.0
1021
0.0
1031
0.0
1012
0.0
1022
0.0
1032
0.0
  0
BLOCKBASEPOINTPARAMETER
  5
137
330
136
100
AcDbEvalExpr
 90
        1
 98
       27
 99
        2
100
AcDbBlockElement
300
Basispunkt
 98
       25
 99
      104
1071
        0
100
AcDbBlockParameter
280
     1
281
     0
100
AcDbBlock1PtParameter
1010
0.0
1020
0.0
1030
0.0
 93
        0
170
     0
171
     0
100
AcDbBlockBasepointParameter
1011
0.0
1021
0.0
1031
0.0
1012
0.0
1022
0.0
1032
0.0
  0
BLOCKBASEPOINTPARAMETER
  5
275
330
274
100
AcDbEvalExpr
 90
        1
 98
       27
 99
        2
100
AcDbBlockElement
300
Basispunkt
 98
       25
 99
      104
1071
        0
100
AcDbBlockParameter
280
     1
281
     0
100
AcDbBlock1PtParameter
1010
0.0
1020
0.0
1030
0.0
 93
        0
170
     0
171
     0
100
AcDbBlockBasepointParameter
1011
0.0
1021
0.0
1031
0.0
1012
0.0
1022
0.0
1032
0.0
  0
ACDB_BLOCKREPRESENTATION_DATA
  5
325
102
{ACAD_REACTORS
330
324
102
}
330
324
100
AcDbBlockRepresentationData
 70
     1
340
D2
  0
DICTIONARY
  5
326
102
{ACAD_REACTORS
330
324
102
}
330
324
100
AcDbDictionary
280
     1
281
     1
  3
ACAD_ENHANCEDBLOCKDATA
360
327
  0
ACDB_BLOCKREPRESENTATION_DATA
  5
333
102
{ACAD_REACTORS
330
332
102
}
330
332
100
AcDbBlockRepresentationData
 70
     1
340
EE
  0
DICTIONARY
  5
334
102
{ACAD_REACTORS
330
332
102
}
330
332
100
AcDbDictionary
280
     1
281
     1
  3
ACAD_ENHANCEDBLOCKDATA
360
335
  0
ACDB_BLOCKREPRESENTATION_DATA
  5
2B6
102
{ACAD_REACTORS
330
2B5
102
}
330
2B5
100
AcDbBlockRepresentationData
 70
     1
340
272
  0
DICTIONARY
  5
2B7
102
{ACAD_REACTORS
330
2B5
102
}
330
2B5
100
AcDbDictionary
280
     1
281
     1
  3
ACAD_ENHANCEDBLOCKDATA
360
2B8
  0
ACDB_BLOCKREPRESENTATION_DATA
  5
360
102
{ACAD_REACTORS
330
35F
102
}
330
35F
100
AcDbBlockRepresentationData
 70
     1
340
EE
  0
DICTIONARY
  5
361
102
{ACAD_REACTORS
330
35F
102
}
330
35F
100
AcDbDictionary
280
     1
281
     1
  3
ACAD_ENHANCEDBLOCKDATA
360
362
  0
ACDB_BLOCKREPRESENTATION_DATA
  5
355
102
{ACAD_REACTORS
330
354
102
}
330
354
100
AcDbBlockRepresentationData
 70
     1
340
11A
  0
DICTIONARY
  5
36A
102
{ACAD_REACTORS
330
354
102
}
330
354
100
AcDbDictionary
280
     1
281
     1
  3
ACAD_ENHANCEDBLOCKDATA
360
36B
  0
ACDB_BLOCKREPRESENTATION_DATA
  5
1C5
102
{ACAD_REACTORS
330
1C4
102
}
330
1C4
100
AcDbBlockRepresentationData
 70
     1
340
D2
  0
DICTIONARY
  5
1DA
102
{ACAD_REACTORS
330
1C4
102
}
330
1C4
100
AcDbDictionary
280
     1
281
     1
  3
ACAD_ENHANCEDBLOCKDATA
360
1DB
  0
ACDB_BLOCKREPRESENTATION_DATA
  5
220
102
{ACAD_REACTORS
330
21F
102
}
330
21F
100
AcDbBlockRepresentationData
 70
     1
340
EE
  0
DICTIONARY
  5
26F
102
{ACAD_REACTORS
330
21F
102
}
330
21F
100
AcDbDictionary
280
     1
281
     1
  3
ACAD_ENHANCEDBLOCKDATA
360
270
  0
DICTIONARY
  5
507
330
36
100
AcDbDictionary
280
     1
281
     1
  3
ACAD_XREC_ROUNDTRIP
360
508
  0
DICTIONARY
  5
50B
330
3E
100
AcDbDictionary
280
     1
281
     1
  3
ACAD_XREC_ROUNDTRIP
360
50C
  0
DICTIONARY
  5
509
330
3A
100
AcDbDictionary
280
     1
281
     1
  3
ACAD_XREC_ROUNDTRIP
360
50A
  0
DICTIONARY
  5
501
330
12
100
AcDbDictionary
280
     1
281
     1
  3
ACAD_XREC_ROUNDTRIP
360
502
  0
DICTIONARY
  5
4FF
330
11
100
AcDbDictionary
280
     1
281
     1
  3
ACAD_XREC_ROUNDTRIP
360
500
  0
DICTIONARY
  5
503
330
13
100
AcDbDictionary
280
     1
281
     1
  3
ACAD_XREC_ROUNDTRIP
360
504
  0
DICTIONARY
  5
505
330
32
100
AcDbDictionary
280
     1
281
     1
  3
ACAD_XREC_ROUNDTRIP
360
506
  0
DICTIONARY
  5
327
102
{ACAD_REACTORS
330
326
102
}
330
326
100
AcDbDictionary
280
     1
281
     1
  3
1
360
328
  0
DICTIONARY
  5
335
102
{ACAD_REACTORS
330
334
102
}
330
334
100
AcDbDictionary
280
     1
281
     1
  3
1
360
336
  0
DICTIONARY
  5
2B8
102
{ACAD_REACTORS
330
2B7
102
}
330
2B7
100
AcDbDictionary
280
     1
281
     1
  3
1
360
2B9
  0
DICTIONARY
  5
362
102
{ACAD_REACTORS
330
361
102
}
330
361
100
AcDbDictionary
280
     1
281
     1
  3
1
360
363
  0
DICTIONARY
  5
36B
102
{ACAD_REACTORS
330
36A
102
}
330
36A
100
AcDbDictionary
280
     1
281
     1
  3
1
360
36C
  0
DICTIONARY
  5
1DB
102
{ACAD_REACTORS
330
1DA
102
}
330
1DA
100
AcDbDictionary
280
     1
281
     1
  3
1
360
1DC
  0
DICTIONARY
  5
270
102
{ACAD_REACTORS
330
26F
102
}
330
26F
100
AcDbDictionary
280
     1
281
     1
  3
1
360
271
  0
XRECORD
  5
508
102
{ACAD_REACTORS
330
507
102
}
330
507
100
AcDbXrecord
280
     1
102
SHADEPLOT
 70
     0
102
SHADEPLOTRESLEVEL
 70
     2
102
SHADEPLOTCUSTOMDPI
 70
   300
  0
XRECORD
  5
50C
102
{ACAD_REACTORS
330
50B
102
}
330
50B
100
AcDbXrecord
280
     1
102
SHADEPLOT
 70
     0
102
SHADEPLOTRESLEVEL
 70
     2
102
SHADEPLOTCUSTOMDPI
 70
   300
  0
XRECORD
  5
50A
102
{ACAD_REACTORS
330
509
102
}
330
509
100
AcDbXrecord
280
     1
102
SHADEPLOT
 70
     0
102
SHADEPLOTRESLEVEL
 70
     2
102
SHADEPLOTCUSTOMDPI
 70
   300
  0
XRECORD
  5
502
102
{ACAD_REACTORS
330
501
102
}
330
501
100
AcDbXrecord
280
     1
102
MATERIAL
148
0.0
149
0.0
149
0.0
 93
        0
 94
       63
282
     0
 72
     1
 77
     1
171
     1
175
     1
179
     1
273
     0
  0
XRECORD
  5
500
102
{ACAD_REACTORS
330
4FF
102
}
330
4FF
100
AcDbXrecord
280
     1
102
MATERIAL
148
0.0
149
0.0
149
0.0
 93
        0
 94
       63
282
     0
 72
     1
 77
     1
171
     1
175
     1
179
     1
273
     0
  0
XRECORD
  5
504
102
{ACAD_REACTORS
330
503
102
}
330
503
100
AcDbXrecord
280
     1
102
MATERIAL
148
0.0
149
0.0
149
0.0
 93
        0
 94
       63
282
     0
 72
     1
 77
     1
171
     1
175
     1
179
     1
273
     0
  0
XRECORD
  5
506
102
{ACAD_REACTORS
330
505
102
}
330
505
100
AcDbXrecord
280
     1
102
ACAD_ROUNDTRIP_PRE2007_TABLESTYLE
 90
      512
 91
        0
  1

 92
      512
 93
        0
  2

 94
      512
 95
        0
  3

  0
XRECORD
  5
328
102
{ACAD_REACTORS
330
327
102
}
330
327
100
AcDbXrecord
280
     1
1071
 82437801
1071
112294725
 70
    25
 70
   104
 10
0.0
 20
0.0
 30
0.0
  0
XRECORD
  5
336
102
{ACAD_REACTORS
330
335
102
}
330
335
100
AcDbXrecord
280
     1
1071
 82437801
1071
112294725
 70
    25
 70
   104
 10
0.0
 20
0.0
 30
0.0
  0
XRECORD
  5
2B9
102
{ACAD_REACTORS
330
2B8
102
}
330
2B8
100
AcDbXrecord
280
     1
1071
 82437801
1071
112294725
 70
    25
 70
   104
 10
0.0
 20
0.0
 30
0.0
  0
XRECORD
  5
363
102
{ACAD_REACTORS
330
362
102
}
330
362
100
AcDbXrecord
280
     1
1071
 82437801
1071
112294725
 70
    25
 70
   104
 10
0.0
 20
0.0
 30
0.0
  0
XRECORD
  5
36C
102
{ACAD_REACTORS
330
36B
102
}
330
36B
100
AcDbXrecord
280
     1
1071
 82437801
1071
112294725
 70
    25
 70
   104
 10
0.0
 20
0.0
 30
0.0
  0
XRECORD
  5
1DC
102
{ACAD_REACTORS
330
1DB
102
}
330
1DB
100
AcDbXrecord
280
     1
1071
 82437801
1071
112294725
 70
    25
 70
   104
 10
0.0
 20
0.0
 30
0.0
  0
XRECORD
  5
271
102
{ACAD_REACTORS
330
270
102
}
330
270
100
AcDbXrecord
280
     1
1071
 82437801
1071
112294725
 70
    25
 70
   104
 10
0.0
 20
0.0
 30
0.0
  0
ENDSEC
  0
EOF
