  0
SECTION
  2
HEADER
  9
$ACADVER
  1
AC1015
  9
$ACADMAINTVER
 70
    20
  9
$DWGCODEPAGE
  3
ANSI_1252
  9
$INSBASE
 10
0.0
 20
0.0
 30
0.0
  9
$EXTMIN
 10
-57.64966118140137
 20
-215.9075962825334
 30
-0.0000000000000058
  9
$EXTMAX
 10
239.9612507478376
 20
61.64539475404308
 30
0.0000000000000104
  9
$LIMMIN
 10
0.0
 20
0.0
  9
$LIMMAX
 10
420.0
 20
297.0
  9
$ORTHOMODE
 70
     0
  9
$REGENMODE
 70
     1
  9
$FILLMODE
 70
     1
  9
$QTEXTMODE
 70
     0
  9
$MIRRTEXT
 70
     0
  9
$LTSCALE
 40
1.0
  9
$ATTMODE
 70
     1
  9
$TEXTSIZE
 40
2.5
  9
$TRACEWID
 40
1.0
  9
$TEXTSTYLE
  7
Standard
  9
$CLAYER
  8
0
  9
$CELTYPE
  6
ByLayer
  9
$CECOLOR
 62
   256
  9
$CELTSCALE
 40
1.0
  9
$DISPSILH
 70
     0
  9
$DIMSCALE
 40
1.0
  9
$DIMASZ
 40
2.5
  9
$DIMEXO
 40
0.625
  9
$DIMDLI
 40
3.75
  9
$DIMRND
 40
0.0
  9
$DIMDLE
 40
0.0
  9
$DIMEXE
 40
1.25
  9
$DIMTP
 40
0.0
  9
$DIMTM
 40
0.0
  9
$DIMTXT
 40
2.5
  9
$DIMCEN
 40
2.5
  9
$DIMTSZ
 40
0.0
  9
$DIMTOL
 70
     0
  9
$DIMLIM
 70
     0
  9
$DIMTIH
 70
     0
  9
$DIMTOH
 70
     0
  9
$DIMSE1
 70
     0
  9
$DIMSE2
 70
     0
  9
$DIMTAD
 70
     1
  9
$DIMZIN
 70
     8
  9
$DIMBLK
  1

  9
$DIMASO
 70
     1
  9
$DIMSHO
 70
     1
  9
$DIMPOST
  1

  9
$DIMAPOST
  1

  9
$DIMALT
 70
     0
  9
$DIMALTD
 70
     3
  9
$DIMALTF
 40
0.03937007874016
  9
$DIMLFAC
 40
1.0
  9
$DIMTOFL
 70
     1
  9
$DIMTVP
 40
0.0
  9
$DIMTIX
 70
     0
  9
$DIMSOXD
 70
     0
  9
$DIMSAH
 70
     0
  9
$DIMBLK1
  1

  9
$DIMBLK2
  1

  9
$DIMSTYLE
  2
ISO-25
  9
$DIMCLRD
 70
     0
  9
$DIMCLRE
 70
     0
  9
$DIMCLRT
 70
     0
  9
$DIMTFAC
 40
1.0
  9
$DIMGAP
 40
0.625
  9
$DIMJUST
 70
     0
  9
$DIMSD1
 70
     0
  9
$DIMSD2
 70
     0
  9
$DIMTOLJ
 70
     0
  9
$DIMTZIN
 70
     8
  9
$DIMALTZ
 70
     0
  9
$DIMALTTZ
 70
     0
  9
$DIMUPT
 70
     0
  9
$DIMDEC
 70
     2
  9
$DIMTDEC
 70
     2
  9
$DIMALTU
 70
     2
  9
$DIMALTTD
 70
     3
  9
$DIMTXSTY
  7
Standard
  9
$DIMAUNIT
 70
     0
  9
$DIMADEC
 70
     0
  9
$DIMALTRND
 40
0.0
  9
$DIMAZIN
 70
     0
  9
$DIMDSEP
 70
    44
  9
$DIMATFIT
 70
     3
  9
$DIMFRAC
 70
     0
  9
$DIMLDRBLK
  1

  9
$DIMLUNIT
 70
     2
  9
$DIMLWD
 70
    -2
  9
$DIMLWE
 70
    -2
  9
$DIMTMOVE
 70
     0
  9
$LUNITS
 70
     2
  9
$LUPREC
 70
     4
  9
$SKETCHINC
 40
1.0
  9
$FILLETRAD
 40
0.0
  9
$AUNITS
 70
     0
  9
$AUPREC
 70
     0
  9
$MENU
  1
.
  9
$ELEVATION
 40
0.0
  9
$PELEVATION
 40
0.0
  9
$THICKNESS
 40
0.0
  9
$LIMCHECK
 70
     0
  9
$CHAMFERA
 40
0.0
  9
$CHAMFERB
 40
0.0
  9
$CHAMFERC
 40
0.0
  9
$CHAMFERD
 40
0.0
  9
$SKPOLY
 70
     0
  9
$TDCREATE
 40
2454560.286075289
  9
$TDUCREATE
 40
2454560.244408623
  9
$TDUPDATE
 40
2454788.623719340
  9
$TDUUPDATE
 40
2454788.582052674
  9
$TDINDWG
 40
0.0847299190
  9
$TDUSRTIMER
 40
0.0847299190
  9
$USRTIMER
 70
     1
  9
$ANGBASE
 50
0.0
  9
$ANGDIR
 70
     0
  9
$PDMODE
 70
     0
  9
$PDSIZE
 40
0.0
  9
$PLINEWID
 40
0.0
  9
$SPLFRAME
 70
     0
  9
$SPLINETYPE
 70
     6
  9
$SPLINESEGS
 70
     8
  9
$HANDSEED
  5
1E4
  9
$SURFTAB1
 70
     6
  9
$SURFTAB2
 70
     6
  9
$SURFTYPE
 70
     6
  9
$SURFU
 70
     6
  9
$SURFV
 70
     6
  9
$UCSBASE
  2

  9
$UCSNAME
  2

  9
$UCSORG
 10
0.0
 20
0.0
 30
0.0
  9
$UCSXDIR
 10
1.0
 20
0.0
 30
0.0
  9
$UCSYDIR
 10
0.0
 20
1.0
 30
0.0
  9
$UCSORTHOREF
  2

  9
$UCSORTHOVIEW
 70
     0
  9
$UCSORGTOP
 10
0.0
 20
0.0
 30
0.0
  9
$UCSORGBOTTOM
 10
0.0
 20
0.0
 30
0.0
  9
$UCSORGLEFT
 10
0.0
 20
0.0
 30
0.0
  9
$UCSORGRIGHT
 10
0.0
 20
0.0
 30
0.0
  9
$UCSORGFRONT
 10
0.0
 20
0.0
 30
0.0
  9
$UCSORGBACK
 10
0.0
 20
0.0
 30
0.0
  9
$PUCSBASE
  2

  9
$PUCSNAME
  2

  9
$PUCSORG
 10
0.0
 20
0.0
 30
0.0
  9
$PUCSXDIR
 10
1.0
 20
0.0
 30
0.0
  9
$PUCSYDIR
 10
0.0
 20
1.0
 30
0.0
  9
$PUCSORTHOREF
  2

  9
$PUCSORTHOVIEW
 70
     0
  9
$PUCSORGTOP
 10
0.0
 20
0.0
 30
0.0
  9
$PUCSORGBOTTOM
 10
0.0
 20
0.0
 30
0.0
  9
$PUCSORGLEFT
 10
0.0
 20
0.0
 30
0.0
  9
$PUCSORGRIGHT
 10
0.0
 20
0.0
 30
0.0
  9
$PUCSORGFRONT
 10
0.0
 20
0.0
 30
0.0
  9
$PUCSORGBACK
 10
0.0
 20
0.0
 30
0.0
  9
$USERI1
 70
     0
  9
$USERI2
 70
     0
  9
$USERI3
 70
     0
  9
$USERI4
 70
     0
  9
$USERI5
 70
     0
  9
$USERR1
 40
0.0
  9
$USERR2
 40
0.0
  9
$USERR3
 40
0.0
  9
$USERR4
 40
0.0
  9
$USERR5
 40
0.0
  9
$WORLDVIEW
 70
     1
  9
$SHADEDGE
 70
     3
  9
$SHADEDIF
 70
    70
  9
$TILEMODE
 70
     1
  9
$MAXACTVP
 70
    64
  9
$PINSBASE
 10
0.0
 20
0.0
 30
0.0
  9
$PLIMCHECK
 70
     0
  9
$PEXTMIN
 10
1.000000000000000E+20
 20
1.000000000000000E+20
 30
1.000000000000000E+20
  9
$PEXTMAX
 10
-1.000000000000000E+20
 20
-1.000000000000000E+20
 30
-1.000000000000000E+20
  9
$PLIMMIN
 10
0.0
 20
0.0
  9
$PLIMMAX
 10
420.0
 20
297.0
  9
$UNITMODE
 70
     0
  9
$VISRETAIN
 70
     1
  9
$PLINEGEN
 70
     0
  9
$PSLTSCALE
 70
     1
  9
$TREEDEPTH
 70
  3020
  9
$CMLSTYLE
  2
Standard
  9
$CMLJUST
 70
     0
  9
$CMLSCALE
 40
20.0
  9
$PROXYGRAPHICS
 70
     1
  9
$MEASUREMENT
 70
     1
  9
$CELWEIGHT
370
    -1
  9
$ENDCAPS
280
     0
  9
$JOINSTYLE
280
     0
  9
$LWDISPLAY
290
     0
  9
$INSUNITS
 70
     4
  9
$HYPERLINKBASE
  1

  9
$STYLESHEET
  1

  9
$XEDIT
290
     1
  9
$CEPSNTYPE
380
     0
  9
$PSTYLEMODE
290
     1
  9
$FINGERPRINTGUID
  2
{B9AADE17-3B08-4750-BFA7-20BBD348B208}
  9
$VERSIONGUID
  2
{00D38563-35FF-44B8-A6BE-E9EA34C17C3F}
  9
$EXTNAMES
290
     1
  9
$PSVPSCALE
 40
0.0
  9
$OLESTARTUP
290
     0
  0
ENDSEC
  0
SECTION
  2
CLASSES
  0
CLASS
  1
ACDBDICTIONARYWDFLT
  2
AcDbDictionaryWithDefault
  3
ObjectDBX Classes
 90
        0
280
     0
281
     0
  0
CLASS
  1
MATERIAL
  2
AcDbMaterial
  3
ObjectDBX Classes
 90
     1153
280
     0
281
     0
  0
CLASS
  1
VISUALSTYLE
  2
AcDbVisualStyle
  3
ObjectDBX Classes
 90
     4095
280
     0
281
     0
  0
CLASS
  1
TABLESTYLE
  2
AcDbTableStyle
  3
ObjectDBX Classes
 90
     4095
280
     0
281
     0
  0
CLASS
  1
DICTIONARYVAR
  2
AcDbDictionaryVar
  3
ObjectDBX Classes
 90
        0
280
     0
281
     0
  0
CLASS
  1
ACAD_EVALUATION_GRAPH
  2
AcDbEvalGraph
  3
ObjectDBX Classes
 90
     1153
280
     0
281
     0
  0
CLASS
  1
BLOCKBASEPOINTPARAMETER
  2
AcDbBlockBasepointParameter
  3
ObjectDBX Classes
 90
     1153
280
     0
281
     0
  0
CLASS
  1
ACDB_DYNAMICBLOCKPURGEPREVENTER_VERSION
  2
AcDbDynamicBlockPurgePreventer
  3
ObjectDBX Classes
 90
     1153
280
     0
281
     0
  0
CLASS
  1
ACDBPLACEHOLDER
  2
AcDbPlaceHolder
  3
ObjectDBX Classes
 90
        0
280
     0
281
     0
  0
CLASS
  1
LAYOUT
  2
AcDbLayout
  3
ObjectDBX Classes
 90
        0
280
     0
281
     0
  0
ENDSEC
  0
SECTION
  2
TABLES
  0
TABLE
  2
VPORT
  5
8
102
{ACAD_XDICTIONARY
360
14A
102
}
330
0
100
AcDbSymbolTable
 70
     1
  0
VPORT
  5
28
330
8
100
AcDbSymbolTableRecord
100
AcDbViewportTableRecord
  2
*Active
 70
     0
 10
0.0
 20
0.0
 11
1.0
 21
1.0
 12
91.15579478321814
 22
-77.13110076424516
 13
0.0
 23
0.0
 14
10.0
 24
10.0
 15
50.0
 25
50.0
 16
0.0
 26
0.0
 36
1.0
 17
0.0
 27
0.0
 37
0.0
 40
279.9184994829109
 41
1.486486486486486
 42
50.0
 43
0.0
 44
0.0
 50
0.0
 51
0.0
 71
     0
 72
  1000
 73
     1
 74
     3
 75
     0
 76
     0
 77
     0
 78
     0
281
     0
 65
     1
110
0.0
120
0.0
130
0.0
111
1.0
121
0.0
131
0.0
112
0.0
122
1.0
132
0.0
 79
     0
146
0.0
  0
ENDTAB
  0
TABLE
  2
LTYPE
  5
5
330
0
100
AcDbSymbolTable
 70
     2
  0
LTYPE
  5
29
330
5
100
AcDbSymbolTableRecord
100
AcDbLinetypeTableRecord
  2
ByBlock
 70
     0
  3

 72
    65
 73
     0
 40
0.0
  0
LTYPE
  5
2A
330
5
100
AcDbSymbolTableRecord
100
AcDbLinetypeTableRecord
  2
ByLayer
 70
     0
  3

 72
    65
 73
     0
 40
0.0
  0
LTYPE
  5
2B
330
5
100
AcDbSymbolTableRecord
100
AcDbLinetypeTableRecord
  2
Continuous
 70
     0
  3
Solid line
 72
    65
 73
     0
 40
0.0
  0
LTYPE
  5
13D
330
5
100
AcDbSymbolTableRecord
100
AcDbLinetypeTableRecord
  2
HIDDEN
 70
     0
  3
__ __ __ __ __ __ __ __ __ __ __ __ __ __ __ __
 72
    65
 73
     2
 40
0.375
 49
0.25
 74
     0
 49
-0.125
 74
     0
  0
ENDTAB
  0
TABLE
  2
LAYER
  5
2
330
0
100
AcDbSymbolTable
 70
     5
  0
LAYER
  5
25
330
2
100
AcDbSymbolTableRecord
100
AcDbLayerTableRecord
  2
0
 70
     0
 62
     7
  6
Continuous
370
    -3
390
F
  0
LAYER
  5
6C
330
2
100
AcDbSymbolTableRecord
100
AcDbLayerTableRecord
  2
Defpoints
 70
     0
 62
     7
  6
Continuous
290
     0
370
    -3
390
F
  0
LAYER
  5
6D
330
2
100
AcDbSymbolTableRecord
100
AcDbLayerTableRecord
  2
025_HATCH
 70
     0
 62
     9
  6
Continuous
370
    -3
390
F
  0
LAYER
  5
92
330
2
100
AcDbSymbolTableRecord
100
AcDbLayerTableRecord
  2
018_POINT
 70
     0
 62
     1
  6
Continuous
370
    -3
390
F
  0
LAYER
  5
13E
330
2
100
AcDbSymbolTableRecord
100
AcDbLayerTableRecord
  2
018_HIDD
 70
     0
 62
     1
  6
HIDDEN
370
    -3
390
F
  0
ENDTAB
  0
TABLE
  2
STYLE
  5
3
330
0
100
AcDbSymbolTable
 70
     1
  0
STYLE
  5
26
330
3
100
AcDbSymbolTableRecord
100
AcDbTextStyleTableRecord
  2
Standard
 70
     0
 40
0.0
 41
1.0
 50
0.0
 71
     0
 42
2.5
  3
ARIALN.TTF
  4

1001
ACAD
1000
Arial Narrow
1071
       34
  0
ENDTAB
  0
TABLE
  2
VIEW
  5
6
330
0
100
AcDbSymbolTable
 70
     0
  0
ENDTAB
  0
TABLE
  2
UCS
  5
7
330
0
100
AcDbSymbolTable
 70
     0
  0
ENDTAB
  0
TABLE
  2
APPID
  5
9
330
0
100
AcDbSymbolTable
 70
     5
  0
APPID
  5
27
330
9
100
AcDbSymbolTableRecord
100
AcDbRegAppTableRecord
  2
ACAD
 70
     0
  0
APPID
  5
6F
330
9
100
AcDbSymbolTableRecord
100
AcDbRegAppTableRecord
  2
AcDbBlockRepETag
 70
     0
  0
APPID
  5
70
330
9
100
AcDbSymbolTableRecord
100
AcDbRegAppTableRecord
  2
AcDbDynamicBlockTrueName
 70
     0
  0
APPID
  5
71
330
9
100
AcDbSymbolTableRecord
100
AcDbRegAppTableRecord
  2
AcDbDynamicBlockGUID
 70
     0
  0
APPID
  5
15C
330
9
100
AcDbSymbolTableRecord
100
AcDbRegAppTableRecord
  2
ACAD_DSTYLE_DIMJOGGED_JOGANGLE_SYMBOL
 70
     0
  0
ENDTAB
  0
TABLE
  2
DIMSTYLE
  5
A
330
0
100
AcDbSymbolTable
 70
     2
100
AcDbDimStyleTable
 71
     0
  0
DIMSTYLE
105
3F
330
A
100
AcDbSymbolTableRecord
100
AcDbDimStyleTableRecord
  2
ISO-25
 70
     0
 41
2.5
 42
0.625
 43
3.75
 44
1.25
 73
     0
 74
     0
 77
     1
 78
     8
140
2.5
141
2.5
143
0.03937007874016
147
0.625
171
     3
172
     1
271
     2
272
     2
274
     3
278
    44
283
     0
284
     8
340
26
1001
ACAD_DSTYLE_DIMJOGGED_JOGANGLE_SYMBOL
1070
   384
1040
1.570796326794896
  0
DIMSTYLE
105
6E
330
A
100
AcDbSymbolTableRecord
100
AcDbDimStyleTableRecord
  2
Standard
 70
     0
340
26
  0
ENDTAB
  0
TABLE
  2
BLOCK_RECORD
  5
1
330
0
100
AcDbSymbolTable
 70
    13
  0
BLOCK_RECORD
  5
37
330
1
100
AcDbSymbolTableRecord
100
AcDbBlockTableRecord
  2
*Model_Space
340
3A
  0
BLOCK_RECORD
  5
33
330
1
100
AcDbSymbolTableRecord
100
AcDbBlockTableRecord
  2
*Paper_Space
340
36
  0
BLOCK_RECORD
  5
3B
330
1
100
AcDbSymbolTableRecord
100
AcDbBlockTableRecord
  2
*Paper_Space0
340
3E
  0
BLOCK_RECORD
  5
5E
102
{ACAD_XDICTIONARY
360
5F
102
}
330
1
100
AcDbSymbolTableRecord
100
AcDbBlockTableRecord
  2
*U1
340
0
310
2800000020000000200000000100080000000000000400000000000000000000000000000000000000000000000080000080000000808000800000008000800080800000C0C0C000C0DCC000F0CAA6000020400000206000002080000020A0000020C0000020E00000400000004020000040400000406000004080000040A0
310
000040C0000040E00000600000006020000060400000606000006080000060A0000060C0000060E00000800000008020000080400000806000008080000080A0000080C0000080E00000A0000000A0200000A0400000A0600000A0800000A0A00000A0C00000A0E00000C0000000C0200000C0400000C0600000C0800000C0
310
A00000C0C00000C0E00000E0000000E0200000E0400000E0600000E0800000E0A00000E0C00000E0E00040000000400020004000400040006000400080004000A0004000C0004000E00040200000402020004020400040206000402080004020A0004020C0004020E000404000004040200040404000404060004040800040
310
40A0004040C0004040E00040600000406020004060400040606000406080004060A0004060C0004060E00040800000408020004080400040806000408080004080A0004080C0004080E00040A0000040A0200040A0400040A0600040A0800040A0A00040A0C00040A0E00040C0000040C0200040C0400040C0600040C08000
310
40C0A00040C0C00040C0E00040E0000040E0200040E0400040E0600040E0800040E0A00040E0C00040E0E00080000000800020008000400080006000800080008000A0008000C0008000E00080200000802020008020400080206000802080008020A0008020C0008020E00080400000804020008040400080406000804080
310
008040A0008040C0008040E00080600000806020008060400080606000806080008060A0008060C0008060E00080800000808020008080400080806000808080008080A0008080C0008080E00080A0000080A0200080A0400080A0600080A0800080A0A00080A0C00080A0E00080C0000080C0200080C0400080C0600080C0
310
800080C0A00080C0C00080C0E00080E0000080E0200080E0400080E0600080E0800080E0A00080E0C00080E0E000C0000000C0002000C0004000C0006000C0008000C000A000C000C000C000E000C0200000C0202000C0204000C0206000C0208000C020A000C020C000C020E000C0400000C0402000C0404000C0406000C0
310
408000C040A000C040C000C040E000C0600000C0602000C0604000C0606000C0608000C060A000C060C000C060E000C0800000C0802000C0804000C0806000C0808000C080A000C080C000C080E000C0A00000C0A02000C0A04000C0A06000C0A08000C0A0A000C0A0C000C0A0E000C0C00000C0C02000C0C04000C0C06000
310
C0C08000C0C0A000F0FBFF00A4A0A000808080000000FF0000FF000000FFFF00FF000000FF00FF00FFFF0000FFFFFF0000000000000000000000000000000000000000000000000000000000000000000000000000000000000000000000000007000000000000000000000000000000000000000000000000000000000000
310
00070000000000000000000000000000000000000000000000000000000000000007000000000000000000000000000000000000000000000000000000000000000700000000000000000000000000000000000000000000000000000000FFFF0007FFFF000000000000000000000000000000000000000000000000FFFF00
310
FF0007FF00FFFF0000000000000000000000000000000000000000FFFFFFFF00FF0007FF00FFFFFFFF00000000000000000000000000000000FFFF00FF00FF00FF0007FF00FF00FF00FFFF0000000000000000000000000000FF00FF000000FFFF0007FFFF000000FF00FF00000000000000000000000000FF00FF00000000
310
FFFF0000FFFF00000000FF00FF000000000000000000000000FFFF0000000000FFFF0000FFFF0000000000FFFF000000000000000000000000FFFF00000000000000000700000000000000FFFF0000000000000000000000FF00FF00000000000000000700000000000000FF00FF00000000000000000000FFFF0000000000
310
000000000700000000000000FF00FF00000000000000000000FFFF000000000000000000070000000000000000FFFF00000000000007070707FFFF070707000007070707070707070000070707FFFF07070707000000000000FFFF000000000000000000070000000000000000FFFF0000000000000000000000FFFF000000
310
0000000000070000000000000000FF000000000000000000000000FFFF00000000000000000700000000000000FFFF000000000000000000000000FF00FF000000000000000000000000000000FFFF000000000000000000000000FF00FF0000000000000000000000000000FF00FF00000000000000000000000000FF00FF
310
00000000000007000000000000FFFF000000000000000000000000000000FFFFFF00000000000700000000FFFFFF0000000000000000000000000000000000FFFFFFFFFFFF000700FFFFFFFF000000000000000000000000000000000000000000FF000000FFFFFF0000FF0000000000000000000000000000000000000000
310
000000FFFFFFFFFFFFFFFF0000000000000000000000000000000000000000000000000000000007000000000000000000000000000000000000000000000000000000000000000700000000000000000000000000000000000000000000000000000000000000070000000000000000000000000000000000000000000000
310
0000000000000000070000000000000000000000000000000000000000000000000000000000000000000000000000000000000000000000
102
{BLKREFS
331
77
102
}
1001
AcDbDynamicBlockTrueName
1000
H12004080
1001
AcDbDynamicBlockGUID
1000
{392D9E05-EC9C-40B5-9FC8-A33EE493A645}
1001
AcDbBlockRepETag
1070
     1
1071
        7
1001
ACAD
1000
DesignCenter Data
1002
{
1070
     1
1070
     4
1002
}
  0
BLOCK_RECORD
  5
78
330
1
100
AcDbSymbolTableRecord
100
AcDbBlockTableRecord
  2
H12004084
340
0
310
2800000020000000200000000100080000000000000400000000000000000000000000000000000000000000000080000080000000808000800000008000800080800000C0C0C000C0DCC000F0CAA6000020400000206000002080000020A0000020C0000020E00000400000004020000040400000406000004080000040A0
310
000040C0000040E00000600000006020000060400000606000006080000060A0000060C0000060E00000800000008020000080400000806000008080000080A0000080C0000080E00000A0000000A0200000A0400000A0600000A0800000A0A00000A0C00000A0E00000C0000000C0200000C0400000C0600000C0800000C0
310
A00000C0C00000C0E00000E0000000E0200000E0400000E0600000E0800000E0A00000E0C00000E0E00040000000400020004000400040006000400080004000A0004000C0004000E00040200000402020004020400040206000402080004020A0004020C0004020E000404000004040200040404000404060004040800040
310
40A0004040C0004040E00040600000406020004060400040606000406080004060A0004060C0004060E00040800000408020004080400040806000408080004080A0004080C0004080E00040A0000040A0200040A0400040A0600040A0800040A0A00040A0C00040A0E00040C0000040C0200040C0400040C0600040C08000
310
40C0A00040C0C00040C0E00040E0000040E0200040E0400040E0600040E0800040E0A00040E0C00040E0E00080000000800020008000400080006000800080008000A0008000C0008000E00080200000802020008020400080206000802080008020A0008020C0008020E00080400000804020008040400080406000804080
310
008040A0008040C0008040E00080600000806020008060400080606000806080008060A0008060C0008060E00080800000808020008080400080806000808080008080A0008080C0008080E00080A0000080A0200080A0400080A0600080A0800080A0A00080A0C00080A0E00080C0000080C0200080C0400080C0600080C0
310
800080C0A00080C0C00080C0E00080E0000080E0200080E0400080E0600080E0800080E0A00080E0C00080E0E000C0000000C0002000C0004000C0006000C0008000C000A000C000C000C000E000C0200000C0202000C0204000C0206000C0208000C020A000C020C000C020E000C0400000C0402000C0404000C0406000C0
310
408000C040A000C040C000C040E000C0600000C0602000C0604000C0606000C0608000C060A000C060C000C060E000C0800000C0802000C0804000C0806000C0808000C080A000C080C000C080E000C0A00000C0A02000C0A04000C0A06000C0A08000C0A0A000C0A0C000C0A0E000C0C00000C0C02000C0C04000C0C06000
310
C0C08000C0C0A000F0FBFF00A4A0A000808080000000FF0000FF000000FFFF00FF000000FF00FF00FFFF0000FFFFFF0000000000000000000000000000000000000000000000000000000000000000000000000000000000000000000000000007000000000000000000000000000000000000000000000000000000000000
310
0007000000000000000000000000000000000000000000000000000000000000000700000000000000000000000000000000000000000000000000000000FFFF0007FFFF0000000000000000000000000000000000000000000000FFFFFFFFFF0007FFFFFFFFFF000000000000000000000000000000000000FFFF00FFFFFF
310
FF0007FFFFFFFF00FFFF000000000000000000000000000000FF00FFFF0000FFFF0007FFFF0000FFFF00FF00000000000000000000000000FF00FF00000000FF00FF07FFFF00000000FF00FF000000000000000000000000FF00FF00000000FF00FFFF00FF0000000000FFFF0000000000000000000000FF00FF0000000000
310
FF00FFFF00FF0000000000FF00FF000000000000000000FF0000FF0000000000FF00FFFF00FF000000000000FF00FF0000000000000000FF00FF000000000000FF00FFFF00FF000000000000FF00FF0000000000000000FF00FF000000000000FFFF0007FFFF00000000000000FFFF0000000000000000FFFF000000000000
310
0000000007000000000000000000FFFF0000000000000000FFFF0000000000000000000007000000000000000000FFFF0000000000070707FFFF0707070707070007070707070700070707070707FFFF0707070000000000FFFF0000000000000000000007000000000000000000FFFF0000000000000000FF00FF00000000
310
0000000000070000000000000000FF00FF000000000000000000FFFF000000000000000000000000000000000000FF00FF000000000000000000FFFF000000000000000000070000000000000000FFFF0000000000000000000000FFFF00000000000000000700000000000000FF00FF0000000000000000000000FF00FF00
310
00000000000007000000000000FF00FF00000000000000000000000000FF00FF000000000000070000000000FF0000FF00000000000000000000000000FF0000FFFF0000000007000000FFFF0000FF000000000000000000000000000000FFFF0000FFFFFF000700FFFF0000FFFF0000000000000000000000000000000000
310
00FFFF000000FFFFFF0000FFFF00000000000000000000000000000000000000000000FFFFFFFFFFFFFFFF000000000000000000000000000000000000000000000000000000000700000000000000000000000000000000000000000000000000000000000000070000000000000000000000000000000000000000000000
310
0000000000000000070000000000000000000000000000000000000000000000000000000000000000000000000000000000000000000000
102
{BLKREFS
331
87
102
}
1001
ACAD
1000
DesignCenter Data
1002
{
1070
     1
1070
     4
1002
}
  0
BLOCK_RECORD
  5
88
330
1
100
AcDbSymbolTableRecord
100
AcDbBlockTableRecord
  2
H12004090
340
0
310
2800000020000000200000000100080000000000000400000000000000000000000000000000000000000000000080000080000000808000800000008000800080800000C0C0C000C0DCC000F0CAA6000020400000206000002080000020A0000020C0000020E00000400000004020000040400000406000004080000040A0
310
000040C0000040E00000600000006020000060400000606000006080000060A0000060C0000060E00000800000008020000080400000806000008080000080A0000080C0000080E00000A0000000A0200000A0400000A0600000A0800000A0A00000A0C00000A0E00000C0000000C0200000C0400000C0600000C0800000C0
310
A00000C0C00000C0E00000E0000000E0200000E0400000E0600000E0800000E0A00000E0C00000E0E00040000000400020004000400040006000400080004000A0004000C0004000E00040200000402020004020400040206000402080004020A0004020C0004020E000404000004040200040404000404060004040800040
310
40A0004040C0004040E00040600000406020004060400040606000406080004060A0004060C0004060E00040800000408020004080400040806000408080004080A0004080C0004080E00040A0000040A0200040A0400040A0600040A0800040A0A00040A0C00040A0E00040C0000040C0200040C0400040C0600040C08000
310
40C0A00040C0C00040C0E00040E0000040E0200040E0400040E0600040E0800040E0A00040E0C00040E0E00080000000800020008000400080006000800080008000A0008000C0008000E00080200000802020008020400080206000802080008020A0008020C0008020E00080400000804020008040400080406000804080
310
008040A0008040C0008040E00080600000806020008060400080606000806080008060A0008060C0008060E00080800000808020008080400080806000808080008080A0008080C0008080E00080A0000080A0200080A0400080A0600080A0800080A0A00080A0C00080A0E00080C0000080C0200080C0400080C0600080C0
310
800080C0A00080C0C00080C0E00080E0000080E0200080E0400080E0600080E0800080E0A00080E0C00080E0E000C0000000C0002000C0004000C0006000C0008000C000A000C000C000C000E000C0200000C0202000C0204000C0206000C0208000C020A000C020C000C020E000C0400000C0402000C0404000C0406000C0
310
408000C040A000C040C000C040E000C0600000C0602000C0604000C0606000C0608000C060A000C060C000C060E000C0800000C0802000C0804000C0806000C0808000C080A000C080C000C080E000C0A00000C0A02000C0A04000C0A06000C0A08000C0A0A000C0A0C000C0A0E000C0C00000C0C02000C0C04000C0C06000
310
C0C08000C0C0A000F0FBFF00A4A0A000808080000000FF0000FF000000FFFF00FF000000FF00FF00FFFF0000FFFFFF00000000000000000000000000000000000000000000000000000000000000000000000000000000000000000000FFFF0000FFFF0000000000000000000000000000000000000000000000000000FFFF
310
0000FFFF0000000000000000000000000000000000000000000000000000FFFF0000FFFF0000000000000000000000000000000000000000000000000000FFFF0000FFFF0000000000000000000000000000000000000000000000000000FFFF0000FFFF0000000000000000000000000000000000000000000000000000FF
310
FF0000FFFF0000000000000000000000000000000000000000000000000000FFFF0000FFFF0000000000000000000000000000000000000000000000000000FFFF0000FFFF0000000000000000000000000000000000000000000000000000FFFF0000FFFF0000000000000000000000000000000000000000000000000000
310
FFFF0000FFFF0000000000000000000000000000000000000000000000000000FFFF0000FFFF0000000000000000000000000000000000000000000000000000FFFF0000FFFF0000000000000000000000000000000000000000000000FFFFFFFFFF0000FFFFFFFFFF00000000000000000000000000000000FFFFFFFF0000
310
0000FF000000FF000000FFFFFFFF000000000000000000FFFFFF0000000000FFFFFF00000000FFFFFF0000000000FFFFFF00000000F9FF000000FFFFFFFFFF00000000000000000000FFFFFFFFFF000000FFF90000FF00FFFFFF0000000000000000000000000000000000000000FFFFFF00FF0000FF00FF00000000000000
310
0000000000000000000000000000000000FF00FF0000FF00FF000000000000000000000000000000000000000000000000FF00FF0000FF00FF000000000000000000000000000000000000000000000000FF00FF0000FF00FF000000000000000000000000000000000000000000000000FF00FF0000FF00FF000000000000
310
000000000000000000000000000000000000FF00FF0000FF00FF000000000000000000000000000000000000000000000000FF00FF0000FF00FF000000000000000000000000000000000000000000000000FF00FF0000FF00FF000000000000000000000000000000000000000000000000FF00FF0000FF00FF0000000000
310
00000000000000000000000000000000000000FF00FF0000FF00FF000000000000000000000000000000000000000000000000FF00FF000000FF00FFFFFFFFFFFFFFFFFFFFFFFFFFFFFFFFFFFFFFFFFFFFFFFF00FF0000000000FF000000000000000000000000000000000000000000000000FF00000000F90000FFFFFFFF
310
FFFFFFFFFFFFFFFFFFFFFFFFFFFFFFFFFFFFFFFF0000F9000000000000000000000000000000000000000000000000000000000000000000
102
{BLKREFS
331
98
102
}
1001
ACAD
1000
DesignCenter Data
1002
{
1070
     1
1070
     4
1002
}
  0
BLOCK_RECORD
  5
99
330
1
100
AcDbSymbolTableRecord
100
AcDbBlockTableRecord
  2
H12004095
340
0
310
2800000020000000200000000100080000000000000400000000000000000000000000000000000000000000000080000080000000808000800000008000800080800000C0C0C000C0DCC000F0CAA6000020400000206000002080000020A0000020C0000020E00000400000004020000040400000406000004080000040A0
310
000040C0000040E00000600000006020000060400000606000006080000060A0000060C0000060E00000800000008020000080400000806000008080000080A0000080C0000080E00000A0000000A0200000A0400000A0600000A0800000A0A00000A0C00000A0E00000C0000000C0200000C0400000C0600000C0800000C0
310
A00000C0C00000C0E00000E0000000E0200000E0400000E0600000E0800000E0A00000E0C00000E0E00040000000400020004000400040006000400080004000A0004000C0004000E00040200000402020004020400040206000402080004020A0004020C0004020E000404000004040200040404000404060004040800040
310
40A0004040C0004040E00040600000406020004060400040606000406080004060A0004060C0004060E00040800000408020004080400040806000408080004080A0004080C0004080E00040A0000040A0200040A0400040A0600040A0800040A0A00040A0C00040A0E00040C0000040C0200040C0400040C0600040C08000
310
40C0A00040C0C00040C0E00040E0000040E0200040E0400040E0600040E0800040E0A00040E0C00040E0E00080000000800020008000400080006000800080008000A0008000C0008000E00080200000802020008020400080206000802080008020A0008020C0008020E00080400000804020008040400080406000804080
310
008040A0008040C0008040E00080600000806020008060400080606000806080008060A0008060C0008060E00080800000808020008080400080806000808080008080A0008080C0008080E00080A0000080A0200080A0400080A0600080A0800080A0A00080A0C00080A0E00080C0000080C0200080C0400080C0600080C0
310
800080C0A00080C0C00080C0E00080E0000080E0200080E0400080E0600080E0800080E0A00080E0C00080E0E000C0000000C0002000C0004000C0006000C0008000C000A000C000C000C000E000C0200000C0202000C0204000C0206000C0208000C020A000C020C000C020E000C0400000C0402000C0404000C0406000C0
310
408000C040A000C040C000C040E000C0600000C0602000C0604000C0606000C0608000C060A000C060C000C060E000C0800000C0802000C0804000C0806000C0808000C080A000C080C000C080E000C0A00000C0A02000C0A04000C0A06000C0A08000C0A0A000C0A0C000C0A0E000C0C00000C0C02000C0C04000C0C06000
310
C0C08000C0C0A000F0FBFF00A4A0A000808080000000FF0000FF000000FFFF00FF000000FF00FF00FFFF0000FFFFFF000000000000000000000000000000000000000000000000000000000000000000000000000000F90000FFFFFFFF0000F9F90000FFFFFFFF0000F90000000000000000000000000000FF00000000FF00
310
000000FF00000000FF000000000000000000000000000000FF00FFFFFFFF00FF0000FF00FFFFFFFF00FF00000000000000000000000000FF00FF00000000FF00FFFF00FF00000000FF00FF000000000000000000000000FF00FF00000000FF00FFFF00FF00000000FF00FF000000000000000000000000FF00FF00000000FF
310
00FFFF00FF00000000FF00FF000000000000000000000000FF00FF00000000FF00FFFF00FF00000000FF00FF000000000000000000000000FF00FF00000000FF00FFFF00FF00000000FF00FF000000000000000000000000FF00FF00000000FF00FFFF00FF00000000FF00FF000000000000000000000000FF00FF00000000
310
FF00FFFF00FF00000000FF00FF000000000000000000000000FF00FF00000000FF00FFFF00FF00000000FF00FF000000000000000000000000FF00FF00000000FF00FFFF00FF00000000FF00FF000000000000000000000000FF00FF00000000FFFFFFFFFFFF00000000FF00FF000000000000000000000000FF00FF000000
310
0000000000000000000000FF00FF000000000000000000000000FF00FF0000000000000000000000000000FF00FF000000000000000000000000FF00FF0000000000000000000000000000FF00FF000000000000000000000000FF00FF0000000000000000000000000000FF00FF000000000000000000000000FF00FF0000
310
000000000000000000000000FF00FF000000000000000000000000FF00FF0000000000000000000000000000FF00FF000000000000000000000000FF00FF0000000000000000000000000000FF00FF000000000000000000000000FF00FF0000000000000000000000000000FF00FF000000000000000000000000FF00FF00
310
00000000000000000000000000FF00FF000000000000000000000000FF00FF0000000000000000000000000000FF00FF000000000000000000000000FF00FF0000000000000000000000000000FF00FF000000000000000000000000FF00FF0000000000000000000000000000FF00FF000000000000000000000000FF00FF
310
0000000000000000000000000000FF00FF000000000000000000000000FF00FF0000000000000000000000000000FF00FF00000000000000000000000000FF00FFFFFFFFFFFFFFFFFFFFFFFFFFFF00FF000000000000000000000000000000FF0000000000000000000000000000FF0000000000000000000000000000F900
310
00FFFFFFFFFFFFFFFFFFFFFFFFFFFF0000F90000000000000000000000000000000000000000000000000000000000000000000000000000
102
{BLKREFS
331
A8
102
}
1001
ACAD
1000
DesignCenter Data
1002
{
1070
     1
1070
     4
1002
}
  0
BLOCK_RECORD
  5
A9
330
1
100
AcDbSymbolTableRecord
100
AcDbBlockTableRecord
  2
H12007053
340
0
310
2800000020000000200000000100080000000000000400000000000000000000000000000000000000000000000080000080000000808000800000008000800080800000C0C0C000C0DCC000F0CAA6000020400000206000002080000020A0000020C0000020E00000400000004020000040400000406000004080000040A0
310
000040C0000040E00000600000006020000060400000606000006080000060A0000060C0000060E00000800000008020000080400000806000008080000080A0000080C0000080E00000A0000000A0200000A0400000A0600000A0800000A0A00000A0C00000A0E00000C0000000C0200000C0400000C0600000C0800000C0
310
A00000C0C00000C0E00000E0000000E0200000E0400000E0600000E0800000E0A00000E0C00000E0E00040000000400020004000400040006000400080004000A0004000C0004000E00040200000402020004020400040206000402080004020A0004020C0004020E000404000004040200040404000404060004040800040
310
40A0004040C0004040E00040600000406020004060400040606000406080004060A0004060C0004060E00040800000408020004080400040806000408080004080A0004080C0004080E00040A0000040A0200040A0400040A0600040A0800040A0A00040A0C00040A0E00040C0000040C0200040C0400040C0600040C08000
310
40C0A00040C0C00040C0E00040E0000040E0200040E0400040E0600040E0800040E0A00040E0C00040E0E00080000000800020008000400080006000800080008000A0008000C0008000E00080200000802020008020400080206000802080008020A0008020C0008020E00080400000804020008040400080406000804080
310
008040A0008040C0008040E00080600000806020008060400080606000806080008060A0008060C0008060E00080800000808020008080400080806000808080008080A0008080C0008080E00080A0000080A0200080A0400080A0600080A0800080A0A00080A0C00080A0E00080C0000080C0200080C0400080C0600080C0
310
800080C0A00080C0C00080C0E00080E0000080E0200080E0400080E0600080E0800080E0A00080E0C00080E0E000C0000000C0002000C0004000C0006000C0008000C000A000C000C000C000E000C0200000C0202000C0204000C0206000C0208000C020A000C020C000C020E000C0400000C0402000C0404000C0406000C0
310
408000C040A000C040C000C040E000C0600000C0602000C0604000C0606000C0608000C060A000C060C000C060E000C0800000C0802000C0804000C0806000C0808000C080A000C080C000C080E000C0A00000C0A02000C0A04000C0A06000C0A08000C0A0A000C0A0C000C0A0E000C0C00000C0C02000C0C04000C0C06000
310
C0C08000C0C0A000F0FBFF00A4A0A000808080000000FF0000FF000000FFFF00FF000000FF00FF00FFFF0000FFFFFF00000000000000000000000000000000000000000000000000000000000000000000F90000FFFFFFFFFFFFFF0000F900000000F90000FFFFFFFFFFFFFF0000F900000000FF00000000000000FF000000
310
0000000000FF00000000000000FF0000000000FF00FFFFFFFFFFFFFF00FF000000000000FF00FFFFFFFFFFFFFF00FF000000FF00FF00000000000000FF00FF00000000FF00FF00000000000000FF00FF0000FF00FF00000000000000FF00FF00000000FF00FF00000000000000FF00FF0000FF00FF00000000000000FF00FF
310
00000000FF00FF00000000000000FF00FF0000FF00FF00000000000000FF00FF00000000FF00FF00000000000000FF00FF0000FF00FF00000000000000FF00FF00000000FF00FF00000000000000FF00FF0000FF00FF00000000000000FF00FF00000000FF00FF00000000000000FF00FF0000FF00FF00000000000000FF00
310
FF00000000FF00FF00000000000000FF00FF0000FF00FF00000000000000FFFFFF00000000FFFFFF00000000000000FF00FF0000FF00FF000000000000000000000000000000000000000000000000FF00FF0000FF00FF000000000000000000000000000000000000000000000000FF00FF0000FF00FF0000000000000000
310
00000000000000000000000000000000FF00FF0000FF00FF000000000000000000000000000000000000000000000000FF00FF0000FF00FF000000000000000000000000000000000000000000000000FF00FF0000FF00FF000000000000000000000000000000000000000000000000FF00FF0000FF00FF00000000000000
310
0000000000000000000000000000000000FF00FF0000FF00FF000000000000000000000000000000000000000000000000FF00FF0000FF00FF000000000000000000000000000000000000000000000000FF00FF0000FF00FF000000000000000000000000000000000000000000000000FF00FF0000FF00FF000000000000
310
000000000000000000000000000000000000FF00FF0000FF00FF000000000000000000000000000000000000000000000000FF00FF0000FF00FF000000000000000000000000000000000000000000000000FF00FF0000FF00FF000000000000000000000000000000000000000000000000FF00FF0000FF00FF0000000000
310
00000000000000000000000000000000000000FF00FF0000FF00FF000000000000000000000000000000000000000000000000FF00FF000000FF00FFFFFFFFFFFFFFFFFFFFFFFFFFFFFFFFFFFFFFFFFFFFFFFF00FF0000000000FF000000000000000000000000000000000000000000000000FF00000000F90000FFFFFFFF
310
FFFFFFFFFFFFFFFFFFFFFFFFFFFFFFFFFFFFFFFF0000F9000000000000000000000000000000000000000000000000000000000000000000
102
{BLKREFS
331
B8
102
}
1001
ACAD
1000
DesignCenter Data
1002
{
1070
     1
1070
     4
1002
}
  0
BLOCK_RECORD
  5
B9
330
1
100
AcDbSymbolTableRecord
100
AcDbBlockTableRecord
  2
H12007058
340
0
310
2800000020000000200000000100080000000000000400000000000000000000000000000000000000000000000080000080000000808000800000008000800080800000C0C0C000C0DCC000F0CAA6000020400000206000002080000020A0000020C0000020E00000400000004020000040400000406000004080000040A0
310
000040C0000040E00000600000006020000060400000606000006080000060A0000060C0000060E00000800000008020000080400000806000008080000080A0000080C0000080E00000A0000000A0200000A0400000A0600000A0800000A0A00000A0C00000A0E00000C0000000C0200000C0400000C0600000C0800000C0
310
A00000C0C00000C0E00000E0000000E0200000E0400000E0600000E0800000E0A00000E0C00000E0E00040000000400020004000400040006000400080004000A0004000C0004000E00040200000402020004020400040206000402080004020A0004020C0004020E000404000004040200040404000404060004040800040
310
40A0004040C0004040E00040600000406020004060400040606000406080004060A0004060C0004060E00040800000408020004080400040806000408080004080A0004080C0004080E00040A0000040A0200040A0400040A0600040A0800040A0A00040A0C00040A0E00040C0000040C0200040C0400040C0600040C08000
310
40C0A00040C0C00040C0E00040E0000040E0200040E0400040E0600040E0800040E0A00040E0C00040E0E00080000000800020008000400080006000800080008000A0008000C0008000E00080200000802020008020400080206000802080008020A0008020C0008020E00080400000804020008040400080406000804080
310
008040A0008040C0008040E00080600000806020008060400080606000806080008060A0008060C0008060E00080800000808020008080400080806000808080008080A0008080C0008080E00080A0000080A0200080A0400080A0600080A0800080A0A00080A0C00080A0E00080C0000080C0200080C0400080C0600080C0
310
800080C0A00080C0C00080C0E00080E0000080E0200080E0400080E0600080E0800080E0A00080E0C00080E0E000C0000000C0002000C0004000C0006000C0008000C000A000C000C000C000E000C0200000C0202000C0204000C0206000C0208000C020A000C020C000C020E000C0400000C0402000C0404000C0406000C0
310
408000C040A000C040C000C040E000C0600000C0602000C0604000C0606000C0608000C060A000C060C000C060E000C0800000C0802000C0804000C0806000C0808000C080A000C080C000C080E000C0A00000C0A02000C0A04000C0A06000C0A08000C0A0A000C0A0C000C0A0E000C0C00000C0C02000C0C04000C0C06000
310
C0C08000C0C0A000F0FBFF00A4A0A000808080000000FF0000FF000000FFFF00FF000000FF00FF00FFFF0000FFFFFF00000000000000000000000000000000000000000000000000000000000000000000F90000FFFFFFFFFFFFFF0000F900000000F90000FFFFFFFFFFFFFF0000F900000000FF00000000000000FF000000
310
0000000000FF00000000000000FF0000000000FF00FFFFFFFFFFFFFF00FF000000000000FF00FFFFFFFFFFFFFF00FF000000FF00FF00000000000000FF00FF00000000FF00FF00000000000000FF00FF0000FF00FF00000000000000FF00FF00000000FF00FF00000000000000FF00FF0000FF00FF00000000000000FF00FF
310
00000000FF00FF00000000000000FF00FF0000FF00FF00000000000000FF00FF00000000FF00FF00000000000000FF00FF0000FF00FF00000000000000FF00FF00000000FF00FF00000000000000FF00FF0000FF00FF00000000000000FF00FF00000000FF00FF00000000000000FF00FF0000FF00FF00000000000000FF00
310
FF00000000FF00FF00000000000000FF00FF0000FF00FF00000000000000FF00FF00000000FF00FF00000000000000FF00FF0000FF00FF00000000000000FF00FF00000000FF00FF00000000000000FF00FF0000FF00FF00000000000000FFFFFF00000000FFFFFF00000000000000FF00FF0000FF00FF0000000000000000
310
00000000000000000000000000000000FF00FF0000FF00FF000000000000000000000000000000000000000000000000FF00FF0000FF00FF000000000000000000000000000000000000000000000000FF00FF0000FF00FF000000000000000000000000000000000000000000000000FF00FF0000FF00FF00000000000000
310
0000000000000000000000000000000000FF00FF0000FF00FF000000000000000000000000000000000000000000000000FF00FF0000FF00FF000000000000000000000000000000000000000000000000FF00FF0000FF00FF000000000000000000000000000000000000000000000000FF00FF0000FF00FF000000000000
310
000000000000000000000000000000000000FF00FF0000FF00FF000000000000000000000000000000000000000000000000FF00FF0000FF00FF000000000000000000000000000000000000000000000000FF00FF0000FF00FF000000000000000000000000000000000000000000000000FF00FF0000FF00FF0000000000
310
00000000000000000000000000000000000000FF00FF0000FF00FF000000000000000000000000000000000000000000000000FF00FF000000FF00FFFFFFFFFFFFFFFFFFFFFFFFFFFFFFFFFFFFFFFFFFFFFFFF00FF0000000000FF000000000000000000000000000000000000000000000000FF00000000F90000FFFFFFFF
310
FFFFFFFFFFFFFFFFFFFFFFFFFFFFFFFFFFFFFFFF0000F9000000000000000000000000000000000000000000000000000000000000000000
102
{BLKREFS
331
C8
102
}
1001
ACAD
1000
DesignCenter Data
1002
{
1070
     1
1070
     4
1002
}
  0
BLOCK_RECORD
  5
C9
102
{ACAD_XDICTIONARY
360
CA
102
}
330
1
100
AcDbSymbolTableRecord
100
AcDbBlockTableRecord
  2
P-4061
340
0
102
{BLKREFS
331
12F
102
}
1001
AcDbDynamicBlockGUID
1000
{5477429B-3123-452C-9545-A12AABFCAB80}
1001
AcDbBlockRepETag
1070
     1
1071
        1
  0
BLOCK_RECORD
  5
CE
102
{ACAD_XDICTIONARY
360
CF
102
}
330
1
100
AcDbSymbolTableRecord
100
AcDbBlockTableRecord
  2
P-2012
340
0
102
{BLKREFS
331
130
331
136
331
139
102
}
1001
AcDbDynamicBlockGUID
1000
{908B5033-5946-47F8-A749-D40ED56EDFA9}
1001
AcDbBlockRepETag
1070
     1
1071
       34
  0
BLOCK_RECORD
  5
F4
102
{ACAD_XDICTIONARY
360
F5
102
}
330
1
100
AcDbSymbolTableRecord
100
AcDbBlockTableRecord
  2
P-2016
340
0
102
{BLKREFS
331
134
102
}
1001
AcDbDynamicBlockGUID
1000
{727B9013-8368-4831-B00E-704E00B4F3D0}
1001
AcDbBlockRepETag
1070
     1
1071
       43
  0
BLOCK_RECORD
  5
123
102
{ACAD_XDICTIONARY
360
124
102
}
330
1
100
AcDbSymbolTableRecord
100
AcDbBlockTableRecord
  2
P-7021
340
0
102
{BLKREFS
331
135
331
137
102
}
1001
AcDbDynamicBlockGUID
1000
{9E0C7086-3F44-4153-9303-B23385BF2A68}
1001
AcDbBlockRepETag
1070
     1
1071
        1
  0
BLOCK_RECORD
  5
128
102
{ACAD_XDICTIONARY
360
129
102
}
330
1
100
AcDbSymbolTableRecord
100
AcDbBlockTableRecord
  2
P-2045
340
0
102
{BLKREFS
331
138
102
}
1001
AcDbDynamicBlockGUID
1000
{1941190E-B1F8-4D92-BF36-84C760041A0B}
1001
AcDbBlockRepETag
1070
     1
1071
        1
  0
BLOCK_RECORD
  5
12D
330
1
100
AcDbSymbolTableRecord
100
AcDbBlockTableRecord
  2
H1202100
340
0
310
2800000020000000200000000100080000000000000400000000000000000000000000000000000000000000000080000080000000808000800000008000800080800000C0C0C000C0DCC000F0CAA6000020400000206000002080000020A0000020C0000020E00000400000004020000040400000406000004080000040A0
310
000040C0000040E00000600000006020000060400000606000006080000060A0000060C0000060E00000800000008020000080400000806000008080000080A0000080C0000080E00000A0000000A0200000A0400000A0600000A0800000A0A00000A0C00000A0E00000C0000000C0200000C0400000C0600000C0800000C0
310
A00000C0C00000C0E00000E0000000E0200000E0400000E0600000E0800000E0A00000E0C00000E0E00040000000400020004000400040006000400080004000A0004000C0004000E00040200000402020004020400040206000402080004020A0004020C0004020E000404000004040200040404000404060004040800040
310
40A0004040C0004040E00040600000406020004060400040606000406080004060A0004060C0004060E00040800000408020004080400040806000408080004080A0004080C0004080E00040A0000040A0200040A0400040A0600040A0800040A0A00040A0C00040A0E00040C0000040C0200040C0400040C0600040C08000
310
40C0A00040C0C00040C0E00040E0000040E0200040E0400040E0600040E0800040E0A00040E0C00040E0E00080000000800020008000400080006000800080008000A0008000C0008000E00080200000802020008020400080206000802080008020A0008020C0008020E00080400000804020008040400080406000804080
310
008040A0008040C0008040E00080600000806020008060400080606000806080008060A0008060C0008060E00080800000808020008080400080806000808080008080A0008080C0008080E00080A0000080A0200080A0400080A0600080A0800080A0A00080A0C00080A0E00080C0000080C0200080C0400080C0600080C0
310
800080C0A00080C0C00080C0E00080E0000080E0200080E0400080E0600080E0800080E0A00080E0C00080E0E000C0000000C0002000C0004000C0006000C0008000C000A000C000C000C000E000C0200000C0202000C0204000C0206000C0208000C020A000C020C000C020E000C0400000C0402000C0404000C0406000C0
310
408000C040A000C040C000C040E000C0600000C0602000C0604000C0606000C0608000C060A000C060C000C060E000C0800000C0802000C0804000C0806000C0808000C080A000C080C000C080E000C0A00000C0A02000C0A04000C0A06000C0A08000C0A0A000C0A0C000C0A0E000C0C00000C0C02000C0C04000C0C06000
310
C0C08000C0C0A000F0FBFF00A4A0A000808080000000FF0000FF000000FFFF00FF000000FF00FF00FFFF0000FFFFFF0000000000000000000000000000000000000000000000000000000000000000000000000000000000000000000000FF00000000000000000000000000000000000000000000000000000000000000FF
310
00000000000000000000000000000000000000000000000000000000000000FFFF000000000000000000000000000000000000000000000000000000000000FFFFFFFF00000000000000000000000000000000000000000000000000000000FFFF00F900000000000000000000000000000000000000000000000000000000
310
FF0000F900000000000000000000000000000000000000000000000000000000FFFFFFFF00000000000000000000000000000000000000000000000000000000FFFFFFFF00000000000000000000000000000000000000000000000000000000FFFFFFFF000000000000000000000000000000000000000000000000000000
310
00FF00FFFF00000000000000000000000000000000000000000000000000000000FFFFFFFF00000000000000000000000000000000000000000000000000000000FFFFFFFF00000000000000000000000000000000000000000000000000000000FF00FFFF0000000000000000000000000000000000000000000000000000
310
0000FF00FFFF00000000000000000000000000000000000000000000000000000000FFFFFFFF00000000000000000000000000000000000000000000000000000000FFFFFFFF00000000000000000000000000000000000000000000000000000000FF00FFFF00000000000000000000000000000000000000000000000000
310
000000FF00FFFF00000000000000000000000000000000000000000000000000000000FFFFFFFF00000000000000000000000000000000000000000000000000000000FFFFFFFF00000000000000000000000000000000000000000000000000000000FF00FFFF000000000000000000000000000000000000000000000000
310
00000000FF00FFFF00000000000000000000000000000000000000000000000000000000FFFFFFFF00000000000000000000000000000000000000000000000000000000FFFFFFFF00000000000000000000000000000000000000000000000000000000FF00FFFF0000000000000000000000000000000000000000000000
310
0000000000FFFFFFFF00000000000000000000000000000000000000000000000000000000FFFFFFFF00000000000000000000000000000000000000000000000000000000FFFF000000000000000000000000000000000000000000000000000000000000FF00000000000000000000000000000000000000000000000000
310
000000000000FF00000000000000000000000000000000000000000000000000000000000000000000000000000000000000000000000000
102
{BLKREFS
331
144
102
}
1001
ACAD
1000
DesignCenter Data
1002
{
1070
     1
1070
     4
1002
}
  0
ENDTAB
  0
ENDSEC
  0
SECTION
  2
BLOCKS
  0
BLOCK
  5
38
330
37
100
AcDbEntity
  8
0
100
AcDbBlockBegin
  2
*Model_Space
 70
     0
 10
0.0
 20
0.0
 30
0.0
  3
*Model_Space
  1

  0
ENDBLK
  5
39
330
37
100
AcDbEntity
  8
0
100
AcDbBlockEnd
  0
BLOCK
  5
34
330
33
100
AcDbEntity
 67
     1
  8
0
100
AcDbBlockBegin
  2
*Paper_Space
 70
     0
 10
0.0
 20
0.0
 30
0.0
  3
*Paper_Space
  1

  0
ENDBLK
  5
35
330
33
100
AcDbEntity
 67
     1
  8
0
100
AcDbBlockEnd
  0
BLOCK
  5
3C
330
3B
100
AcDbEntity
 67
     1
  8
0
100
AcDbBlockBegin
  2
*Paper_Space0
 70
     0
 10
0.0
 20
0.0
 30
0.0
  3
*Paper_Space0
  1

  0
ENDBLK
  5
3D
330
3B
100
AcDbEntity
 67
     1
  8
0
100
AcDbBlockEnd
  0
BLOCK
  5
63
330
5E
100
AcDbEntity
  8
0
 48
0.35
100
AcDbBlockBegin
  2
*U1
 70
     1
 10
0.0
 20
0.0
 30
0.0
  3
*U1
  1

  0
LWPOLYLINE
  5
64
330
5E
100
AcDbEntity
  8
0
 48
0.35
100
AcDbPolyline
 90
        9
 70
     1
 43
0.0
 10
-2.093734296383331
 20
-12.79823678444522
 10
-0.8500000000000227
 20
-12.92323678444522
 10
-1.350000000000022
 20
-17.89817396997829
 42
-13.25790664442813
 10
1.350000000000022
 20
-17.89817396997829
 10
0.8500000000000227
 20
-12.92323678444522
 10
2.093734296383331
 20
-12.79823678444522
 10
2.450925279571038
 20
-16.35224219364123
 42
6.161853370040106
 10
-2.450925279571038
 20
-16.35224219364123
 10
-2.093734296383217
 20
-12.79823678444522
1001
AcDbBlockRepETag
1070
     1
1071
        0
1005
64
  0
LINE
  5
65
330
5E
100
AcDbEntity
  8
025_HATCH
 48
0.35
100
AcDbLine
 10
-2.5
 20
-8.999999999999985
 30
0.0
 11
2.5
 21
-8.999999999999985
 31
0.0
1001
AcDbBlockRepETag
1070
     1
1071
        1
1005
65
  0
LINE
  5
66
330
5E
100
AcDbEntity
  8
025_HATCH
 48
0.35
100
AcDbLine
 10
0.0
 20
-11.49999999999998
 30
0.0
 11
0.0
 21
-6.499999999999985
 31
0.0
1001
AcDbBlockRepETag
1070
     1
1071
        2
1005
66
  0
LINE
  5
67
330
5E
100
AcDbEntity
  8
025_HATCH
 48
0.35
100
AcDbLine
 10
-5.0
 20
-8.999999999999985
 30
0.0
 11
-11.5
 21
-8.999999999999985
 31
0.0
1001
AcDbBlockRepETag
1070
     1
1071
        3
1005
67
  0
LINE
  5
68
330
5E
100
AcDbEntity
  8
025_HATCH
 48
0.35
100
AcDbLine
 10
5.0
 20
-8.999999999999985
 30
0.0
 11
11.5
 21
-8.999999999999985
 31
0.0
1001
AcDbBlockRepETag
1070
     1
1071
        4
1005
68
  0
LINE
  5
69
330
5E
100
AcDbEntity
  8
025_HATCH
 48
0.35
100
AcDbLine
 10
0.0
 20
-13.99999999999998
 30
0.0
 11
0.0
 21
-20.49999999999993
 31
0.0
1001
AcDbBlockRepETag
1070
     1
1071
        5
1005
69
  0
LINE
  5
6A
330
5E
100
AcDbEntity
  8
025_HATCH
 48
0.35
100
AcDbLine
 10
0.0
 20
-3.999999999999985
 30
0.0
 11
0.0
 21
2.499999999999957
 31
0.0
1001
AcDbBlockRepETag
1070
     1
1071
        6
1005
6A
  0
ENDBLK
  5
6B
330
5E
100
AcDbEntity
  8
0
 48
0.35
100
AcDbBlockEnd
  0
BLOCK
  5
79
330
78
100
AcDbEntity
  8
0
 48
0.35
100
AcDbBlockBegin
  2
H12004084
 70
     0
 10
0.0
 20
0.0
 30
0.0
  3
H12004084
  1

  0
LWPOLYLINE
  5
7A
330
78
100
AcDbEntity
  8
0
 48
0.35
100
AcDbPolyline
 90
        9
 70
     1
 43
0.0
 10
-2.348136485208691
 20
-16.87017671524477
 10
-0.8499999999852363
 20
-16.94492343184359
 10
-1.348311443977387
 20
-26.93250000000145
 42
-19.97498435543817
 10
1.348311444006839
 20
-26.93249999999997
 10
0.8500000000147664
 20
-16.94492343184359
 10
2.348136485238221
 20
-16.87017671524477
 10
2.762623181999231
 20
-25.17766728222557
 42
8.570719103724202
 10
-2.762623181969701
 20
-25.17766728222557
 10
-2.348136485208691
 20
-16.87017671524477
  0
LINE
  5
7B
330
78
100
AcDbEntity
  8
025_HATCH
 48
0.35
100
AcDbLine
 10
-2.499999999992624
 20
-13.50000000000036
 30
0.0
 11
2.500000000007375
 21
-13.50000000000036
 31
0.0
  0
LINE
  5
7C
330
78
100
AcDbEntity
  8
025_HATCH
 48
0.35
100
AcDbLine
 10
0.0000000000073754
 20
-16.00000000000035
 30
0.0
 11
0.0000000000073754
 21
-11.00000000000036
 31
0.0
  0
LINE
  5
7D
330
78
100
AcDbEntity
  8
025_HATCH
 48
0.35
100
AcDbLine
 10
-4.999999999992624
 20
-13.50000000000036
 30
0.0
 11
-15.99999999999298
 21
-13.50000000000036
 31
0.0
  0
LINE
  5
7E
330
78
100
AcDbEntity
  8
025_HATCH
 48
0.35
100
AcDbLine
 10
5.000000000007375
 20
-13.50000000000036
 30
0.0
 11
16.00000000000773
 21
-13.50000000000036
 31
0.0
  0
LINE
  5
7F
330
78
100
AcDbEntity
  8
025_HATCH
 48
0.35
100
AcDbLine
 10
0.0000000000073754
 20
-18.50000000000035
 30
0.0
 11
0.0000000000073754
 21
-29.50000000000071
 31
0.0
  0
LINE
  5
80
330
78
100
AcDbEntity
  8
025_HATCH
 48
0.35
100
AcDbLine
 10
0.0000000000073754
 20
-8.500000000000357
 30
0.0
 11
0.0000000000073754
 21
2.499999999999998
 31
0.0
  0
ENDBLK
  5
81
330
78
100
AcDbEntity
  8
0
 48
0.35
100
AcDbBlockEnd
  0
BLOCK
  5
89
330
88
100
AcDbEntity
  8
0
 48
0.35
100
AcDbBlockBegin
  2
H12004090
 70
     0
 10
0.0
 20
0.0
 30
0.0
  3
H12004090
  1

  0
LWPOLYLINE
  5
8A
330
88
100
AcDbEntity
  8
0
 48
0.35
100
AcDbPolyline
 90
       29
 70
     1
 43
0.0
 10
2.099999999999987
 20
-20.0
 10
0.8499999999999872
 20
-20.0
 10
0.8499999999999872
 20
-11.92803358035976
 42
-0.3525001657988585
 10
2.02969349797938
 20
-10.46263133361543
 10
8.553384417003421
 20
-9.036687963337016
 42
0.3525001657988638
 10
8.749999999999992
 20
-8.792454255546289
 10
8.75
 20
-1.5
 42
0.4142135623730951
 10
8.5
 20
-1.25
 10
-8.5
 20
-1.25
 42
0.4142135623730951
 10
-8.75
 20
-1.5
 10
-8.749999999999971
 20
-8.792454255546289
 42
0.352500165798852
 10
-8.553384417003442
 20
-9.036687963336987
 10
-2.029693497979359
 20
-10.46263133361546
 42
-0.3525001657988585
 10
-0.8500000000000014
 20
-11.92803358035979
 10
-0.8500000000000014
 20
-20.0
 10
-2.100000000000001
 20
-20.0
 10
-2.100000000000001
 20
-11.92803358035979
 42
0.3525001657988633
 10
-2.296615582996565
 20
-11.68379987256907
 10
-8.820306502020621
 20
-10.25785650229059
 42
-0.3525001657988625
 10
-10.0
 20
-8.79245425554626
 10
-10.0
 20
-1.5
 42
-0.4142135623730953
 10
-8.5
 20
0.0
 10
8.5
 20
0.0
 42
-0.4142135623730951
 10
10.0
 20
-1.5
 10
9.999999999999992
 20
-8.792454255546289
 42
-0.3525001657988633
 10
8.820306502020606
 20
-10.25785650229062
 10
2.296615582996551
 20
-11.68379987256904
 42
0.3525001657988633
 10
2.099999999999987
 20
-11.92803358035976
 10
2.099999999999987
 20
-20.0
  0
POINT
  5
8B
330
88
100
AcDbEntity
  8
018_POINT
 48
0.35
100
AcDbPoint
 10
9.999999999999992
 20
-10.00000000000005
 30
0.0
  0
POINT
  5
8C
330
88
100
AcDbEntity
  8
018_POINT
 48
0.35
100
AcDbPoint
 10
10.0
 20
0.0
 30
0.0
  0
POINT
  5
8D
330
88
100
AcDbEntity
  8
018_POINT
 48
0.35
100
AcDbPoint
 10
-9.999999999999992
 20
-10.00000000000005
 30
0.0
 50
180.0
  0
POINT
  5
8E
330
88
100
AcDbEntity
  8
018_POINT
 48
0.35
100
AcDbPoint
 10
-10.0
 20
0.0
 30
0.0
 50
180.0
  0
POINT
  5
8F
330
88
100
AcDbEntity
  8
018_POINT
 48
0.35
100
AcDbPoint
 10
-2.100000000000001
 20
-11.72677595628417
 30
0.0
  0
POINT
  5
90
330
88
100
AcDbEntity
  8
018_POINT
 48
0.35
100
AcDbPoint
 10
2.100000000000001
 20
-11.72677595628417
 30
0.0
 50
180.0
  0
ENDBLK
  5
91
330
88
100
AcDbEntity
  8
0
 48
0.35
100
AcDbBlockEnd
  0
BLOCK
  5
9A
330
99
100
AcDbEntity
  8
0
 48
0.35
100
AcDbBlockBegin
  2
H12004095
 70
     0
 10
0.0
 20
0.0
 30
0.0
  3
H12004095
  1

  0
LWPOLYLINE
  5
9B
330
99
100
AcDbEntity
  8
0
 48
0.35
100
AcDbPolyline
 90
       28
 70
     1
 43
0.0
 10
-2.350000000000001
 20
-18.0
 10
-0.8500000000000014
 20
-18.0
 10
-0.8500000000000014
 20
-26.99999999999999
 42
-0.4142135623730951
 10
-3.850000000000001
 20
-30.0
 10
-7.0
 20
-30.0
 42
-0.4142135623730951
 10
-10.0
 20
-27.0
 10
-10.0
 20
-3.0
 42
-0.4142135623730951
 10
-7.0
 20
0.0
 10
7.0
 20
0.0
 42
-0.4142135623730951
 10
10.0
 20
-3.0
 10
10.0
 20
-27.0
 42
-0.4142135623730951
 10
7.0
 20
-30.0
 10
3.850000000000001
 20
-30.0
 42
-0.4142135623730951
 10
0.8500000000000014
 20
-26.99999999999999
 10
0.8500000000000014
 20
-18.0
 10
2.350000000000001
 20
-18.0
 10
2.350000000000001
 20
-27.0
 42
0.4142135623730951
 10
3.850000000000001
 20
-28.5
 10
6.999999999999999
 20
-28.50000000000001
 42
0.4142135623730953
 10
8.5
 20
-27.00000000000001
 10
8.5
 20
-3.0
 42
0.4142135623730951
 10
7.0
 20
-1.5
 10
-7.0
 20
-1.5
 42
0.4142135623730951
 10
-8.5
 20
-3.0
 10
-8.5
 20
-27.0
 42
0.4142135623730953
 10
-6.999999999999999
 20
-28.5
 10
-3.850000000000001
 20
-28.5
 42
0.4142135623730951
 10
-2.350000000000001
 20
-27.0
  0
POINT
  5
9C
330
99
100
AcDbEntity
  8
018_POINT
 48
0.35
100
AcDbPoint
 10
-10.0
 20
0.0
 30
0.0
  0
POINT
  5
9D
330
99
100
AcDbEntity
  8
018_POINT
 48
0.35
100
AcDbPoint
 10
10.0
 20
0.0
 30
0.0
 50
180.0
  0
POINT
  5
9E
330
99
100
AcDbEntity
  8
018_POINT
 48
0.35
100
AcDbPoint
 10
-10.0
 20
-30.0
 30
0.0
  0
POINT
  5
9F
330
99
100
AcDbEntity
  8
018_POINT
 48
0.35
100
AcDbPoint
 10
10.0
 20
-30.0
 30
0.0
 50
180.0
  0
POINT
  5
A0
330
99
100
AcDbEntity
  8
018_POINT
 48
0.35
100
AcDbPoint
 10
-0.8500000000000014
 20
-30.0
 30
0.0
 50
180.0
  0
POINT
  5
A1
330
99
100
AcDbEntity
  8
018_POINT
 48
0.35
100
AcDbPoint
 10
0.8500000000000014
 20
-30.0
 30
0.0
 50
0.000000000000007
  0
ENDBLK
  5
A2
330
99
100
AcDbEntity
  8
0
 48
0.35
100
AcDbBlockEnd
  0
BLOCK
  5
AA
330
A9
100
AcDbEntity
  8
0
 48
0.35
100
AcDbBlockBegin
  2
H12007053
 70
     0
 10
0.0
 20
0.0
 30
0.0
  3
H12007053
  1

  0
LWPOLYLINE
  5
AB
330
A9
100
AcDbEntity
  8
0
 48
0.35
100
AcDbPolyline
 90
       29
 70
     1
 43
0.0
 10
-4.350000000000001
 20
-20.0
 10
-2.850000000000001
 20
-20.0
 10
-2.850000000000001
 20
-27.0
 42
-0.4142135623730951
 10
-5.850000000000001
 20
-30.0
 10
-12.0
 20
-30.0
 42
-0.4142135623730951
 10
-15.0
 20
-27.0
 10
-15.0
 20
-3.0
 42
-0.4142135623730951
 10
-12.0
 20
0.0
 10
12.0
 20
0.0
 42
-0.4142135623730951
 10
15.0
 20
-3.0
 10
15.0
 20
-27.0
 42
-0.4142135623730951
 10
12.0
 20
-30.0
 10
5.850000000000001
 20
-30.0
 42
-0.4142135623730951
 10
2.850000000000001
 20
-27.0
 10
2.850000000000001
 20
-20.0
 10
4.350000000000001
 20
-20.0
 10
4.35
 20
-27.0
 42
0.4142135623730951
 10
5.85
 20
-28.5
 10
12.0
 20
-28.5
 42
0.4142135623730951
 10
13.5
 20
-27.0
 10
13.5
 20
-3.0
 42
0.4142135623730951
 10
12.0
 20
-1.5
 10
-12.0
 20
-1.5
 42
0.4142135623730951
 10
-13.5
 20
-3.0
 10
-13.5
 20
-27.0
 42
0.4142135623730951
 10
-12.0
 20
-28.5
 10
-5.85
 20
-28.5
 42
0.4142135623730951
 10
-4.35
 20
-27.0
 10
-4.350000000000001
 20
-20.0
  0
POINT
  5
AC
330
A9
100
AcDbEntity
  8
018_POINT
 48
0.35
100
AcDbPoint
 10
-15.0
 20
-30.0
 30
0.0
  0
POINT
  5
AD
330
A9
100
AcDbEntity
  8
018_POINT
 48
0.35
100
AcDbPoint
 10
15.0
 20
-30.0
 30
0.0
  0
POINT
  5
AE
330
A9
100
AcDbEntity
  8
018_POINT
 48
0.35
100
AcDbPoint
 10
15.0
 20
0.0
 30
0.0
  0
POINT
  5
AF
330
A9
100
AcDbEntity
  8
018_POINT
 48
0.35
100
AcDbPoint
 10
-15.0
 20
0.0
 30
0.0
  0
POINT
  5
B0
330
A9
100
AcDbEntity
  8
018_POINT
 48
0.35
100
AcDbPoint
 10
-2.850000000000001
 20
-30.0
 30
0.0
 50
180.0
  0
POINT
  5
B1
330
A9
100
AcDbEntity
  8
018_POINT
 48
0.35
100
AcDbPoint
 10
2.850000000000001
 20
-30.0
 30
0.0
 50
360.0
  0
ENDBLK
  5
B2
330
A9
100
AcDbEntity
  8
0
 48
0.35
100
AcDbBlockEnd
  0
BLOCK
  5
BA
330
B9
100
AcDbEntity
  8
0
 48
0.35
100
AcDbBlockBegin
  2
H12007058
 70
     0
 10
0.0
 20
0.0
 30
0.0
  3
H12007058
  1

  0
LWPOLYLINE
  5
BB
330
B9
100
AcDbEntity
  8
0
 48
0.35
100
AcDbPolyline
 90
       28
 70
     1
 43
0.0
 10
-5.75
 20
-36.0
 10
-5.75
 20
-23.54335213049126
 10
-3.75
 20
-23.54335213049126
 10
-3.75
 20
-36.0
 42
-0.4142135623730951
 10
-7.75
 20
-40.0
 10
-16.0
 20
-40.0
 42
-0.4142135623730951
 10
-20.0
 20
-36.0
 10
-20.0
 20
-4.0
 42
-0.4142135623730951
 10
-16.0
 20
0.0
 10
15.99999999999999
 20
0.0
 42
-0.4142135623730951
 10
19.99999999999999
 20
-4.0
 10
19.99999999999999
 20
-36.0
 42
-0.4142135623730951
 10
15.99999999999999
 20
-40.0
 10
7.75
 20
-40.0
 42
-0.4142135623730951
 10
3.75
 20
-36.0
 10
3.75
 20
-23.54335213049126
 10
5.75
 20
-23.54335213049126
 10
5.750000000000005
 20
-36.0
 42
0.4142135623730951
 10
7.750000000000006
 20
-37.99999999999999
 10
15.99999999999999
 20
-37.99999999999999
 42
0.414213562373095
 10
18.0
 20
-35.99999999999999
 10
17.99999999999999
 20
-4.0
 42
0.4142135623730951
 10
15.99999999999999
 20
-2.0
 10
-15.99999999999999
 20
-2.0
 42
0.4142135623730951
 10
-18.0
 20
-4.0
 10
-17.99999999999998
 20
-36.0
 42
0.4142135623730951
 10
-15.99999999999998
 20
-38.0
 10
-7.749999999999999
 20
-37.99999999999999
 42
0.414213562373095
  0
POINT
  5
BC
330
B9
100
AcDbEntity
  8
018_POINT
 48
0.35
100
AcDbPoint
 10
19.99999999999999
 20
-40.0
 30
0.0
  0
POINT
  5
BD
330
B9
100
AcDbEntity
  8
018_POINT
 48
0.35
100
AcDbPoint
 10
3.75
 20
-40.0
 30
0.0
  0
POINT
  5
BE
330
B9
100
AcDbEntity
  8
018_POINT
 48
0.35
100
AcDbPoint
 10
19.99999999999999
 20
0.0
 30
0.0
  0
POINT
  5
BF
330
B9
100
AcDbEntity
  8
018_POINT
 48
0.35
100
AcDbPoint
 10
-20.0
 20
-40.0
 30
0.0
 50
180.0
  0
POINT
  5
C0
330
B9
100
AcDbEntity
  8
018_POINT
 48
0.35
100
AcDbPoint
 10
-3.750000000000007
 20
-40.0
 30
0.0
 50
180.0
  0
POINT
  5
C1
330
B9
100
AcDbEntity
  8
018_POINT
 48
0.35
100
AcDbPoint
 10
-20.0
 20
0.0
 30
0.0
 50
180.0
  0
ENDBLK
  5
C2
330
B9
100
AcDbEntity
  8
0
 48
0.35
100
AcDbBlockEnd
  0
BLOCK
  5
CB
330
C9
100
AcDbEntity
  8
0
100
AcDbBlockBegin
  2
P-4061
 70
     0
 10
0.0
 20
0.0
 30
0.0
  3
P-4061
  1

  0
LWPOLYLINE
  5
CC
330
C9
100
AcDbEntity
  8
0
 48
0.2
100
AcDbPolyline
 90
      158
 70
     1
 43
0.0
 10
-3.000000000000113
 20
-124.9900000000001
 10
-2.500000000000113
 20
-124.4900000000001
 10
-3.000000000000113
 20
-123.99
 10
-3.000000000000113
 20
-119.0673502691896
 10
-2.000000000000113
 20
-118.49
 10
-2.0
 20
-111.9900000000001
 10
-1.500000000000113
 20
-111.4900000000001
 10
-2.0
 20
-110.9900000000001
 10
-2.000000000000113
 20
-105.0667949192431
 10
-1.850000000000136
 20
-104.9801923788645
 10
-1.850000000000022
 20
-104.5766025403784
 42
0.5773502691896536
 10
-2.15000000000009
 20
-104.4033974596215
 10
-2.499519052838422
 20
-104.6051923788648
 10
-2.499519052838309
 20
-104.7783974596216
 10
-4.999999999999545
 20
-106.2220508075689
 10
-4.999999999999545
 20
-104.49
 10
-4.275670738434769
 20
-104.0718083058536
 42
0.668178637919313
 10
-4.348025024903904
 20
-103.5222229368315
 10
-20.00881904510265
 20
-99.32592582628911
 42
-0.3394542588633786
 10
-20.75000000000011
 20
-98.36000000000002
 10
-20.75
 20
-97.38376079018918
 42
-0.2679493850789296
 10
-20.50000000000011
 20
-96.95074772881127
 10
-19.20000000000004
 20
-96.2001923788647
 42
-0.5773502691896281
 10
-18.75000000000011
 20
-96.46000000000004
 10
-18.75000000000011
 20
-98.11031110222621
 10
-4.258819045102541
 20
-101.9932113364641
 42
0.4931454260313047
 10
-3.000000000000113
 20
-101.027285510175
 10
-3.000000000000113
 20
-91.66000000000009
 10
-2.500000000000113
 20
-91.16000000000008
 10
-3.000000000000113
 20
-90.66000000000007
 10
-3.000000000000113
 20
-85.73735026918972
 10
-2.000000000000113
 20
-85.16000000000008
 10
-2.0
 20
-78.66000000000008
 10
-1.500000000000113
 20
-78.16000000000008
 10
-2.0
 20
-77.66000000000019
 10
-2.000000000000113
 20
-71.73679491924303
 10
-1.850000000000136
 20
-71.65019237886451
 10
-1.850000000000136
 20
-71.24660254037838
 42
0.5773502691896536
 10
-2.15000000000009
 20
-71.07339745962145
 10
-2.499519052838422
 20
-71.27519237886474
 10
-2.499519052838422
 20
-71.44839745962156
 10
-4.999999999999545
 20
-72.89205080756892
 10
-4.999999999999545
 20
-71.15999999999996
 10
-4.275670738434769
 20
-70.74180830585362
 42
0.668178637919313
 10
-4.348025024903904
 20
-70.19222293683151
 10
-20.00881904510265
 20
-65.99592582628907
 42
-0.3394542588633786
 10
-20.75000000000011
 20
-65.02999999999997
 10
-20.75
 20
-64.05376079018913
 42
-0.2679493850789296
 10
-20.50000000000011
 20
-63.62074772881124
 10
-19.20000000000004
 20
-62.87019237886465
 42
-0.5773502691896281
 10
-18.75000000000011
 20
-63.12999999999999
 10
-18.75000000000011
 20
-64.78031110222616
 10
-4.258819045102654
 20
-68.66321133646408
 42
0.4931454260313047
 10
-3.000000000000113
 20
-67.69728551017499
 10
-3.000000000000113
 20
-58.33000000000016
 10
-2.500000000000113
 20
-57.83000000000004
 10
-3.000000000000113
 20
-57.33000000000004
 10
-3.000000000000113
 20
-52.40735026918969
 10
-2.000000000000113
 20
-51.83000000000004
 10
-2.0
 20
-45.33000000000003
 10
-1.500000000000113
 20
-44.83000000000004
 10
-2.0
 20
-44.33000000000015
 10
-2.000000000000113
 20
-38.40679491924311
 10
-1.850000000000136
 20
-38.32019237886459
 10
-1.850000000000136
 20
-37.91660254037845
 42
0.5773502691896536
 10
-2.15000000000009
 20
-37.74339745962152
 10
-2.499519052838422
 20
-37.94519237886482
 10
-2.499519052838422
 20
-38.11839745962164
 10
-4.999999999999545
 20
-39.562050807569
 10
-4.999999999999545
 20
-37.83000000000004
 10
-4.275670738434769
 20
-37.4118083058537
 42
0.668178637919313
 10
-4.348025024903904
 20
-36.86222293683159
 10
-20.00881904510265
 20
-32.66592582628914
 42
-0.3394542588633786
 10
-20.75000000000011
 20
-31.70000000000005
 10
-20.75
 20
-30.7237607901892
 42
-0.2679493850789296
 10
-20.50000000000011
 20
-30.29074772881131
 10
-19.20000000000004
 20
-29.54019237886473
 42
-0.5773502691896281
 10
-18.75000000000011
 20
-29.80000000000007
 10
-18.75000000000011
 20
-31.45031110222624
 10
-4.258819045102654
 20
-35.33321133646416
 42
0.4931454260313047
 10
-3.000000000000113
 20
-34.36728551017507
 10
-3.000000000000113
 20
-25.00000000000011
 10
-2.500000000000113
 20
-24.50000000000012
 10
-3.000000000000113
 20
-24.00000000000011
 10
-3.000000000000113
 20
-19.07735026918965
 10
-2.000000000000113
 20
-18.5
 10
-2.0
 20
-12.00000000000011
 10
-1.500000000000113
 20
-11.50000000000011
 10
-2.0
 20
-11.00000000000011
 10
-2.000000000000113
 20
-4.500000000000113
 10
-5.0
 20
-6.232050807568953
 10
-5.0
 20
-4.500000000000113
 10
-4.000000000000113
 20
-3.922649730810462
 10
-4.0
 20
-2.800000000000181
 10
-2.000000000000113
 20
-2.800000000000068
 10
-2.000000000000113
 20
-0.0000000000001137
 10
0.0
 20
0.0
 10
0.0
 20
-18.0
 10
-0.5000000000001137
 20
-18.50000000000011
 10
-0.0000000000001137
 20
-19.00000000000011
 10
0.0
 20
-51.32999999999992
 10
-0.5000000000001137
 20
-51.83000000000004
 10
-0.0000000000001137
 20
-52.33000000000015
 10
-0.0000000000001137
 20
-84.65999999999997
 10
-0.5000000000001137
 20
-85.16000000000008
 10
-0.0000000000001137
 20
-85.66000000000007
 10
-0.0000000000001137
 20
-117.99
 10
-0.5000000000001137
 20
-118.49
 10
-0.0000000000001137
 20
-118.9900000000002
 10
-0.0000000000001137
 20
-151.3200000000001
 10
-0.5000000000001137
 20
-151.8200000000001
 10
-0.0000000000001137
 20
-152.3200000000002
 10
0.0000000000037517
 20
-166.6500000000002
 10
-2.100000000000022
 20
-166.6500000000002
 10
-2.100000000000022
 20
-169.4500000000003
 10
-6.949065730039023
 20
-169.4500000000003
 42
-0.06554346281524
 10
-7.207884775141678
 20
-169.4159258262893
 10
-20.00881904510254
 20
-165.9859258262893
 42
-0.3394542588633722
 10
-20.75000000000011
 20
-165.0200000000002
 10
-20.74999999999989
 20
-164.0437607901893
 42
-0.2679493850789107
 10
-20.50000000000011
 20
-163.6107477288114
 10
-19.20000000000004
 20
-162.8601923788649
 42
-0.5773502691896556
 10
-18.75
 20
-163.1200000000002
 10
-18.75000000000011
 20
-164.7703111022264
 10
-7.010406028759803
 20
-167.9159258262894
 42
0.0655434628152338
 10
-6.751586983657375
 20
-167.9500000000002
 10
-4.899999999999977
 20
-167.9500000000002
 42
0.4142135623730951
 10
-3.899999999999977
 20
-166.9500000000003
 10
-3.899999999999977
 20
-165.1903293088493
 42
-0.2522636525022283
 10
-3.450000000000045
 20
-164.3551646544248
 42
0.2522636525022408
 10
-3.000000000000113
 20
-163.5200000000003
 10
-3.000000000000113
 20
-158.3200000000003
 10
-2.500000000000113
 20
-157.8200000000002
 10
-3.000000000000113
 20
-157.3200000000001
 10
-3.000000000000113
 20
-152.3973502691898
 10
-2.000000000000113
 20
-151.8200000000001
 10
-2.0
 20
-145.3200000000002
 10
-1.500000000000113
 20
-144.8200000000003
 10
-2.0
 20
-144.3200000000002
 10
-2.000000000000113
 20
-138.3967949192432
 10
-1.850000000000136
 20
-138.3101923788647
 10
-1.850000000000022
 20
-137.9066025403785
 42
0.5773502691896536
 10
-2.15000000000009
 20
-137.7333974596216
 10
-2.499519052838422
 20
-137.9351923788649
 10
-2.499519052838309
 20
-138.1083974596217
 10
-4.999999999999545
 20
-139.5520508075691
 10
-4.999999999999545
 20
-137.8200000000001
 10
-4.275670738434769
 20
-137.4018083058538
 42
0.668178637919313
 10
-4.348025024903904
 20
-136.8522229368317
 10
-20.00881904510254
 20
-132.6559258262892
 42
-0.3394542588633786
 10
-20.75000000000011
 20
-131.6900000000001
 10
-20.74999999999989
 20
-130.7137607901893
 42
-0.2679493850789296
 10
-20.50000000000011
 20
-130.2807477288114
 10
-19.20000000000004
 20
-129.5301923788648
 42
-0.5773502691896281
 10
-18.75000000000011
 20
-129.7900000000002
 10
-18.75000000000011
 20
-131.4403111022263
 10
-4.258819045102541
 20
-135.3232113364642
 42
0.4931454260313047
 10
-3.000000000000113
 20
-134.3572855101752
1001
AcDbBlockRepETag
1070
     1
1071
        0
1005
CC
1001
ACAD
1000
ASC_BOUNDS
1002
{
1070
    19
1002
}
  0
ENDBLK
  5
CD
330
C9
100
AcDbEntity
  8
0
100
AcDbBlockEnd
  0
BLOCK
  5
D0
330
CE
100
AcDbEntity
  8
0
100
AcDbBlockBegin
  2
P-2012
 70
     0
 10
0.0
 20
0.0
 30
0.0
  3
P-2012
  1

  0
LINE
  5
D1
330
CE
100
AcDbEntity
  8
0
 48
0.2
100
AcDbLine
 10
-13.74997419575311
 20
-7.938611651288454
 30
0.0
 11
-0.8749950112717783
 21
-0.5051824456111831
 31
0.0
1001
AcDbBlockRepETag
1070
     1
1071
        0
1005
D1
  0
LINE
  5
D2
330
CE
100
AcDbEntity
  8
0
 48
0.2
100
AcDbLine
 10
-1.5
 20
0.5773502691897079
 30
0.0
 11
-20.30000000000007
 21
-10.27683479157537
 31
0.0
1001
AcDbBlockRepETag
1070
     1
1071
        1
1005
D2
  0
ARC
  5
D3
330
CE
100
AcDbEntity
  8
0
 48
0.2
100
AcDbCircle
 10
-1.749999999999943
 20
1.01036297108186
 30
0.0
 40
0.4999999999999432
100
AcDbArc
 50
299.9999999999981
 51
0.0
1001
AcDbBlockRepETag
1070
     1
1071
        2
1005
D3
  0
LINE
  5
D4
330
CE
100
AcDbEntity
  8
0
 48
0.2
100
AcDbLine
 10
0.0
 20
1.01035913075708
 30
0.0
 11
0.0
 21
11.98493525376403
 31
0.0
1001
AcDbBlockRepETag
1070
     1
1071
        3
1005
D4
  0
ARC
  5
D5
330
CE
100
AcDbEntity
  8
0
 48
0.2
100
AcDbCircle
 10
-1.0
 20
11.98493525376392
 30
0.0
 40
1.0
100
AcDbArc
 50
0.0000000000065138
 51
57.42102960720304
1001
AcDbBlockRepETag
1070
     1
1071
        4
1005
D5
  0
ARC
  5
D6
330
CE
100
AcDbEntity
  8
0
 48
0.2
100
AcDbCircle
 10
-1.750000000000056
 20
1.01035913075708
 30
0.0
 40
1.750000000000079
100
AcDbArc
 50
300.0001886010977
 51
0.0
1001
AcDbBlockRepETag
1070
     1
1071
        5
1005
D6
  0
LINE
  5
D7
330
CE
100
AcDbEntity
  8
0
 48
0.2
100
AcDbLine
 10
-1.249999999999886
 20
11.31531685931344
 30
0.0
 11
-1.25
 21
1.01036297108186
 31
0.0
1001
AcDbBlockRepETag
1070
     1
1071
        6
1005
D7
  0
ARC
  5
D8
330
CE
100
AcDbEntity
  8
0
 48
0.2
100
AcDbCircle
 10
-1.549999999999897
 20
11.31531685931344
 30
0.0
 40
0.300000000000022
100
AcDbArc
 50
0.0
 51
120.0000000000051
1001
AcDbBlockRepETag
1070
     1
1071
        7
1005
D8
  0
LINE
  5
D9
330
CE
100
AcDbEntity
  8
0
 48
0.2
100
AcDbLine
 10
-2.700000000000045
 20
10.99777421125913
 30
0.0
 11
-1.699999999999931
 21
11.57512448044878
 31
0.0
1001
AcDbBlockRepETag
1070
     1
1071
        8
1005
D9
  0
ARC
  5
DA
330
CE
100
AcDbEntity
  8
0
 48
0.2
100
AcDbCircle
 10
-2.800000000000011
 20
11.17097929201605
 30
0.0
 40
0.1999999999999886
100
AcDbArc
 50
180.0
 51
299.9999999999856
1001
AcDbBlockRepETag
1070
     1
1071
        9
1005
DA
  0
LINE
  5
DB
330
CE
100
AcDbEntity
  8
0
 48
0.2
100
AcDbLine
 10
-3.0
 20
12.15247474963831
 30
0.0
 11
-3.0
 21
11.17097929201605
 31
0.0
1001
AcDbBlockRepETag
1070
     1
1071
       10
1005
DB
  0
ARC
  5
DC
330
CE
100
AcDbEntity
  8
0
 48
0.2
100
AcDbCircle
 10
-2.799999999999954
 20
12.15247474963831
 30
0.0
 40
0.2000000000000475
100
AcDbArc
 50
119.9999999999996
 51
180.0
1001
AcDbBlockRepETag
1070
     1
1071
       11
1005
DC
  0
ARC
  5
DD
330
CE
100
AcDbEntity
  8
0
 48
0.2
100
AcDbCircle
 10
-0.300000000000125
 20
13.08038036877434
 30
0.0
 40
0.3000000000000064
100
AcDbArc
 50
180.0
 51
237.4210296072012
1001
AcDbBlockRepETag
1070
     1
1071
       12
1005
DD
  0
LINE
  5
DE
330
CE
100
AcDbEntity
  8
0
 48
0.2
100
AcDbLine
 10
-0.9000000000000909
 20
13.48038036877432
 30
0.0
 11
-2.899999999999977
 21
12.32567983039524
 31
0.0
1001
AcDbBlockRepETag
1070
     1
1071
       13
1005
DE
  0
ARC
  5
DF
330
CE
100
AcDbEntity
  8
0
 48
0.2
100
AcDbCircle
 10
-0.800000000000125
 20
13.30717528801739
 30
0.0
 40
0.1999999999999886
100
AcDbArc
 50
0.0
 51
119.9999999999855
1001
AcDbBlockRepETag
1070
     1
1071
       14
1005
DF
  0
LINE
  5
E0
330
CE
100
AcDbEntity
  8
0
 48
0.2
100
AcDbLine
 10
-0.6000000000001365
 20
13.08038036877434
 30
0.0
 11
-0.6000000000001365
 21
13.30717528801739
 31
0.0
1001
AcDbBlockRepETag
1070
     1
1071
       15
1005
E0
  0
LINE
  5
E1
330
CE
100
AcDbEntity
  8
0
 48
0.2
100
AcDbLine
 10
-19.14999999999998
 20
-21.82309614751947
 30
0.0
 11
-19.14999999999986
 21
-11.17172770881933
 31
0.0
1001
AcDbBlockRepETag
1070
     1
1071
       16
1005
E1
  0
ARC
  5
E2
330
CE
100
AcDbEntity
  8
0
 48
0.2
100
AcDbCircle
 10
-18.94999999999999
 20
-21.82309614751947
 30
0.0
 40
0.1999999999999698
100
AcDbArc
 50
180.0
 51
299.9999999999937
1001
AcDbBlockRepETag
1070
     1
1071
       17
1005
E2
  0
LINE
  5
E3
330
CE
100
AcDbEntity
  8
0
 48
0.2
100
AcDbLine
 10
-17.70000000000004
 20
-21.33234841870834
 30
0.0
 11
-18.85000000000002
 21
-21.99630122827634
 31
0.0
1001
AcDbBlockRepETag
1070
     1
1071
       18
1005
E3
  0
ARC
  5
E4
330
CE
100
AcDbEntity
  8
0
 48
0.2
100
AcDbCircle
 10
-17.59999999999996
 20
-21.50555349946523
 30
0.0
 40
0.1999999999999886
100
AcDbArc
 50
0.0000000000081422
 51
120.0000000000178
1001
AcDbBlockRepETag
1070
     1
1071
       19
1005
E4
  0
LINE
  5
E5
330
CE
100
AcDbEntity
  8
0
 48
0.2
100
AcDbLine
 10
-17.40000000000009
 20
-22.48704895708764
 30
0.0
 11
-17.39999999999997
 21
-21.50555349946521
 31
0.0
1001
AcDbBlockRepETag
1070
     1
1071
       20
1005
E5
  0
ARC
  5
E6
330
CE
100
AcDbEntity
  8
0
 48
0.2
100
AcDbCircle
 10
-17.60000000000008
 20
-22.48704895708761
 30
0.0
 40
0.1999999999999944
100
AcDbArc
 50
299.9999999999896
 51
359.9999999999919
1001
AcDbBlockRepETag
1070
     1
1071
       21
1005
E6
  0
LINE
  5
E7
330
CE
100
AcDbEntity
  8
0
 48
0.2
100
AcDbLine
 10
-19.65000000000009
 20
-23.90155711660217
 30
0.0
 11
-17.50000000000011
 21
-22.66025403784451
 31
0.0
1001
AcDbBlockRepETag
1070
     1
1071
       22
1005
E7
  0
ARC
  5
E8
330
CE
100
AcDbEntity
  8
0
 48
0.2
100
AcDbCircle
 10
-19.90000000000015
 20
-23.46854441470998
 30
0.0
 40
0.4999999999999432
100
AcDbArc
 50
180.0000000000032
 51
300.0000000000078
1001
AcDbBlockRepETag
1070
     1
1071
       23
1005
E8
  0
LINE
  5
E9
330
CE
100
AcDbEntity
  8
0
 48
0.2
100
AcDbLine
 10
-20.40000000000009
 20
-10.45003987233229
 30
0.0
 11
-20.40000000000009
 21
-23.46854441471001
 31
0.0
1001
AcDbBlockRepETag
1070
     1
1071
       24
1005
E9
  0
ARC
  5
EA
330
CE
100
AcDbEntity
  8
0
 48
0.2
100
AcDbCircle
 10
-17.74999999999954
 20
-9.324206847411971
 30
0.0
 40
3.000000000000117
100
AcDbArc
 50
299.9999999999887
 51
355.9442022574235
1001
AcDbBlockRepETag
1070
     1
1071
       25
1005
EA
  0
LINE
  5
EB
330
CE
100
AcDbEntity
  8
0
 48
0.2
100
AcDbLine
 10
-16.44999999999993
 20
-12.03775311260364
 30
0.0
 11
-16.25
 21
-11.92228305876568
 31
0.0
1001
AcDbBlockRepETag
1070
     1
1071
       26
1005
EB
  0
ARC
  5
EC
330
CE
100
AcDbEntity
  8
0
 48
0.2
100
AcDbCircle
 10
-16.55000000000001
 20
-11.86454803184682
 30
0.0
 40
0.1999999999999886
100
AcDbArc
 50
180.0
 51
300.00000000003
1001
AcDbBlockRepETag
1070
     1
1071
       27
1005
EC
  0
LINE
  5
ED
330
CE
100
AcDbEntity
  8
0
 48
0.2
100
AcDbLine
 10
-16.74999999999988
 20
-10.01702717043992
 30
0.0
 11
-16.75
 21
-11.86454803184682
 31
0.0
1001
AcDbBlockRepETag
1070
     1
1071
       28
1005
ED
  0
ARC
  5
EE
330
CE
100
AcDbEntity
  8
0
 48
0.2
100
AcDbCircle
 10
-16.94999999999987
 20
-10.01702717043997
 30
0.0
 40
0.2000000000000266
100
AcDbArc
 50
0.0000000000162844
 51
120.0000000000219
1001
AcDbBlockRepETag
1070
     1
1071
       29
1005
EE
  0
LINE
  5
EF
330
CE
100
AcDbEntity
  8
0
 48
0.2
100
AcDbLine
 10
-19.04999999999995
 20
-10.9985226280624
 30
0.0
 11
-17.04999999999995
 21
-9.843822089683101
 31
0.0
1001
AcDbBlockRepETag
1070
     1
1071
       30
1005
EF
  0
ARC
  5
F0
330
CE
100
AcDbEntity
  8
0
 48
0.2
100
AcDbCircle
 10
-18.94999999999987
 20
-11.17172770881922
 30
0.0
 40
0.1999999999999886
100
AcDbArc
 50
120.00000000003
 51
180.0000000000325
1001
AcDbBlockRepETag
1070
     1
1071
       31
1005
F0
  0
ARC
  5
F1
330
CE
100
AcDbEntity
  8
0
 48
0.2
100
AcDbCircle
 10
-20.20000000000004
 20
-10.45003987233229
 30
0.0
 40
0.2000000000000475
100
AcDbArc
 50
119.9999999999996
 51
180.0
1001
AcDbBlockRepETag
1070
     1
1071
       32
1005
F1
  0
ARC
  5
F2
330
CE
100
AcDbEntity
  8
0
 48
0.2
100
AcDbCircle
 10
-12.76252177706902
 20
-9.67784646028781
 30
0.0
 40
2.000000000000033
100
AcDbArc
 50
119.5857901649087
 51
175.9442022574392
1001
AcDbBlockRepETag
1070
     1
1071
       33
1005
F2
  0
ENDBLK
  5
F3
330
CE
100
AcDbEntity
  8
0
100
AcDbBlockEnd
  0
BLOCK
  5
F6
330
F4
100
AcDbEntity
  8
0
100
AcDbBlockBegin
  2
P-2016
 70
     0
 10
0.0
 20
0.0
 30
0.0
  3
P-2016
  1

  0
LWPOLYLINE
  5
F7
330
F4
100
AcDbEntity
  8
0
 48
0.2
100
AcDbPolyline
 90
       42
 70
     1
 43
0.0
 10
-13.76142340055929
 20
-7.945221903015294
 10
-0.8749950112718352
 20
-0.50518244561124
 42
0.2679483104202581
 10
0.0
 20
1.01035913075708
 10
0.0
 20
11.97348486100873
 42
0.2559241411155745
 10
-0.461538461538396
 20
12.81613494947811
 42
-0.2559241411155781
 10
-0.5999999999999091
 20
13.06892997601898
 10
-0.5999999999999091
 20
13.29999999999984
 42
0.5773502691896929
 10
-0.9000000000001477
 20
13.47320508075688
 10
-2.89999999999992
 20
12.31850454237786
 42
0.2679491924312384
 10
-3.0
 20
12.14529946162088
 10
-3.0
 20
11.16380400399862
 42
0.5773502691898372
 10
-2.700000000000045
 20
10.99059892324169
 10
-1.699999999999818
 20
11.56794919243123
 42
-0.5773502691897733
 10
-1.25
 20
11.308141571296
 10
-1.25
 20
1.010362971081804
 42
-0.2679491924311653
 10
-1.499999999999829
 20
0.5773502691897079
 10
-20.30000000000018
 20
-10.27683479157565
 42
0.2679491924310656
 10
-20.40000000000009
 20
-10.45003987233235
 10
-20.40000000000009
 20
-24.1613647377373
 42
0.2679491924311301
 10
-20.25000000000017
 20
-24.42117235887258
 10
-19.54999999999995
 20
-24.82531754730542
 42
-0.2679491924311294
 10
-19.40000000000009
 20
-25.08512516844053
 10
-19.40000000000009
 20
-35.46854441470998
 42
0.5773502691896476
 10
-18.65000000000009
 20
-35.90155711660225
 10
-16.50000000000011
 20
-34.66025403784482
 42
0.2679491924311184
 10
-16.40000000000009
 20
-34.4870489570879
 10
-16.40000000000009
 20
-33.50555349946535
 42
0.5773502691896252
 10
-16.70000000000016
 20
-33.33234841870837
 10
-17.85000000000019
 20
-33.99630122827637
 42
-0.5773502691894139
 10
-18.15000000000009
 20
-33.82309614751944
 10
-18.15000000000009
 20
-24.76758252038633
 42
0.2679491924310909
 10
-18.64999999999998
 20
-23.90155711660208
 10
-19.0
 20
-23.69948452238566
 42
-0.2679491924310668
 10
-19.14999999999986
 20
-23.43967690125049
 10
-19.15000000000009
 20
-11.17172770881927
 42
-0.2679491924310422
 10
-19.05000000000007
 20
-10.9985226280624
 10
-17.05000000000007
 20
-9.843822089683101
 42
-0.5773502691894614
 10
-16.75
 20
-10.01702717044008
 10
-16.75
 20
-11.87990270036806
 42
0.5773502691899248
 10
-16.44999999999976
 20
-12.05310778112488
 10
-16.24999999999784
 20
-11.93763772728562
 42
0.2499176206059419
 10
-14.75685061949349
 20
-9.542186257692321
 42
-0.2499167462797494
1001
AcDbBlockRepETag
1070
     1
1071
        0
1005
F7
  0
ARC
  5
F8
330
F4
100
AcDbEntity
  8
0
 48
0.2
100
AcDbCircle
 10
-0.9999999999998863
 20
11.97348486100873
 30
0.0
 40
0.9999999999998863
100
AcDbArc
 50
0.0000000000097707
 51
57.42102960720679
1001
AcDbBlockRepETag
1070
     1
1071
        1
1005
F8
  0
LINE
  5
F9
330
F4
100
AcDbEntity
  8
0
 48
0.2
100
AcDbLine
 10
-0.9000000000000909
 20
13.47320508075688
 30
0.0
 11
-2.90000000000009
 21
12.31850454237781
 31
0.0
1001
AcDbBlockRepETag
1070
     1
1071
        2
1005
F9
  0
ARC
  5
FA
330
F4
100
AcDbEntity
  8
0
 48
0.2
100
AcDbCircle
 10
-20.10000000000013
 20
-24.1613647377373
 30
0.0
 40
0.2999999999999545
100
AcDbArc
 50
180.0000000000271
 51
240.0000000000258
1001
AcDbBlockRepETag
1070
     1
1071
        3
1005
FA
  0
ARC
  5
FB
330
F4
100
AcDbEntity
  8
0
 48
0.2
100
AcDbCircle
 10
-19.14999999999998
 20
-24.76758252038633
 30
0.0
 40
0.9999999999998863
100
AcDbArc
 50
0.0000000000032569
 51
60.00000000000347
1001
AcDbBlockRepETag
1070
     1
1071
        4
1005
FB
  0
LINE
  5
FC
330
F4
100
AcDbEntity
  8
0
 48
0.2
100
AcDbLine
 10
-20.25
 20
-24.4211723588727
 30
0.0
 11
-19.54999999999995
 21
-24.82531754730542
 31
0.0
1001
AcDbBlockRepETag
1070
     1
1071
        5
1005
FC
  0
LINE
  5
FD
330
F4
100
AcDbEntity
  8
0
 48
0.2
100
AcDbLine
 10
-19.40000000000009
 20
-25.08512516844064
 30
0.0
 11
-19.40000000000009
 21
-35.46854441470998
 31
0.0
1001
AcDbBlockRepETag
1070
     1
1071
        6
1005
FD
  0
LINE
  5
FE
330
F4
100
AcDbEntity
  8
0
 48
0.2
100
AcDbLine
 10
-16.40000000000009
 20
-34.48704895708772
 30
0.0
 11
-16.40000000000009
 21
-33.50555349946524
 31
0.0
1001
AcDbBlockRepETag
1070
     1
1071
        7
1005
FE
  0
LINE
  5
FF
330
F4
100
AcDbEntity
  8
0
 48
0.2
100
AcDbLine
 10
-16.70000000000027
 20
-33.33234841870842
 30
0.0
 11
-17.85000000000013
 21
-33.99630122827637
 31
0.0
1001
AcDbBlockRepETag
1070
     1
1071
        8
1005
FF
  0
LINE
  5
100
330
F4
100
AcDbEntity
  8
0
 48
0.2
100
AcDbLine
 10
-18.15000000000009
 20
-33.82309614751955
 30
0.0
 11
-18.15000000000009
 21
-24.76758252038633
 31
0.0
1001
AcDbBlockRepETag
1070
     1
1071
        9
1005
100
  0
ARC
  5
101
330
F4
100
AcDbEntity
  8
0
 48
0.2
100
AcDbCircle
 10
-18.90000000000009
 20
-35.46854441470998
 30
0.0
 40
0.5
100
AcDbArc
 50
180.0
 51
299.9999999999973
1001
AcDbBlockRepETag
1070
     1
1071
       10
1005
101
  0
LINE
  5
102
330
F4
100
AcDbEntity
  8
0
 48
0.2
100
AcDbLine
 10
-18.65000000000009
 20
-35.90155711660225
 30
0.0
 11
-16.5
 21
-34.66025403784477
 31
0.0
1001
AcDbBlockRepETag
1070
     1
1071
       11
1005
102
  0
ARC
  5
103
330
F4
100
AcDbEntity
  8
0
 48
0.2
100
AcDbCircle
 10
-16.60000000000013
 20
-34.48704895708784
 30
0.0
 40
0.2000000000000551
100
AcDbArc
 50
300.000000000036
 51
0.0000000000488533
1001
AcDbBlockRepETag
1070
     1
1071
       12
1005
103
  0
ARC
  5
104
330
F4
100
AcDbEntity
  8
0
 48
0.2
100
AcDbCircle
 10
-17.95000000000016
 20
-33.8230961475195
 30
0.0
 40
0.1999999999999736
100
AcDbArc
 50
180.0000000000081
 51
300.0000000000119
1001
AcDbBlockRepETag
1070
     1
1071
       13
1005
104
  0
ARC
  5
105
330
F4
100
AcDbEntity
  8
0
 48
0.2
100
AcDbCircle
 10
-19.69999999999982
 20
-25.08512516844053
 30
0.0
 40
0.2999999999997398
100
AcDbArc
 50
359.9999999999783
 51
60.00000000000139
1001
AcDbBlockRepETag
1070
     1
1071
       14
1005
105
  0
ARC
  5
106
330
F4
100
AcDbEntity
  8
0
 48
0.2
100
AcDbCircle
 10
-16.60000000000013
 20
-33.50555349946529
 30
0.0
 40
0.2000000000000455
100
AcDbArc
 50
0.0000000000244267
 51
120.0000000000319
1001
AcDbBlockRepETag
1070
     1
1071
       15
1005
106
  0
LINE
  5
107
330
F4
100
AcDbEntity
  8
0
 48
0.2
100
AcDbLine
 10
-13.76142340055935
 20
-7.945221903015294
 30
0.0
 11
-0.8749950112718352
 21
-0.50518244561124
 31
0.0
1001
AcDbBlockRepETag
1070
     1
1071
       16
1005
107
  0
LINE
  5
108
330
F4
100
AcDbEntity
  8
0
 48
0.2
100
AcDbLine
 10
-1.5
 20
0.5773502691896511
 30
0.0
 11
-20.30000000000018
 21
-10.27683479157565
 31
0.0
1001
AcDbBlockRepETag
1070
     1
1071
       17
1005
108
  0
LINE
  5
109
330
F4
100
AcDbEntity
  8
0
 48
0.2
100
AcDbLine
 10
-20.40000000000009
 20
-10.45003987233247
 30
0.0
 11
-20.40000000000009
 21
-24.16136473773747
 31
0.0
1001
AcDbBlockRepETag
1070
     1
1071
       18
1005
109
  0
ARC
  5
10A
330
F4
100
AcDbEntity
  8
0
 48
0.2
100
AcDbCircle
 10
-20.20000000000027
 20
-10.45003987233235
 30
0.0
 40
0.1999999999998429
100
AcDbArc
 50
119.9999999999959
 51
180.0000000000162
1001
AcDbBlockRepETag
1070
     1
1071
       19
1005
10A
  0
LINE
  5
10B
330
F4
100
AcDbEntity
  8
0
 48
0.2
100
AcDbLine
 10
-19.14999999999986
 20
-23.43967690125044
 30
0.0
 11
-19.15000000000009
 21
-11.1717277088195
 31
0.0
1001
AcDbBlockRepETag
1070
     1
1071
       20
1005
10B
  0
LINE
  5
10C
330
F4
100
AcDbEntity
  8
0
 48
0.2
100
AcDbLine
 10
-18.65000000000009
 20
-23.90155711660202
 30
0.0
 11
-19.0
 21
-23.69948452238566
 31
0.0
1001
AcDbBlockRepETag
1070
     1
1071
       21
1005
10C
  0
ARC
  5
10D
330
F4
100
AcDbEntity
  8
0
 48
0.2
100
AcDbCircle
 10
-18.85000000000002
 20
-23.43967690125044
 30
0.0
 40
0.2999999999998459
100
AcDbArc
 50
179.9999999999891
 51
239.999999999988
1001
AcDbBlockRepETag
1070
     1
1071
       22
1005
10D
  0
ARC
  5
10E
330
F4
100
AcDbEntity
  8
0
 48
0.2
100
AcDbCircle
 10
-18.95000000000004
 20
-11.17172770881927
 30
0.0
 40
0.2000000000000455
100
AcDbArc
 50
120.000000000036
 51
180.0000000000488
1001
AcDbBlockRepETag
1070
     1
1071
       23
1005
10E
  0
LINE
  5
10F
330
F4
100
AcDbEntity
  8
0
 48
0.2
100
AcDbLine
 10
-19.05000000000018
 20
-10.99852262806246
 30
0.0
 11
-17.05000000000018
 21
-9.843822089683158
 31
0.0
1001
AcDbBlockRepETag
1070
     1
1071
       24
1005
10F
  0
ARC
  5
110
330
F4
100
AcDbEntity
  8
0
 48
0.2
100
AcDbCircle
 10
-16.95000000000004
 20
-10.01702717044003
 30
0.0
 40
0.2000000000000797
100
AcDbArc
 50
0.0000000000244267
 51
120.0000000000319
1001
AcDbBlockRepETag
1070
     1
1071
       25
1005
110
  0
LINE
  5
111
330
F4
100
AcDbEntity
  8
0
 48
0.2
100
AcDbLine
 10
-16.75
 20
-10.01702717043997
 30
0.0
 11
-16.75
 21
-11.87990270036801
 31
0.0
1001
AcDbBlockRepETag
1070
     1
1071
       26
1005
111
  0
ARC
  5
112
330
F4
100
AcDbEntity
  8
0
 48
0.2
100
AcDbCircle
 10
-16.54999999999995
 20
-11.87990270036806
 30
0.0
 40
0.2000000000000455
100
AcDbArc
 50
179.9999999999756
 51
299.9999999999674
1001
AcDbBlockRepETag
1070
     1
1071
       27
1005
112
  0
LINE
  5
113
330
F4
100
AcDbEntity
  8
0
 48
0.2
100
AcDbLine
 10
-16.45000000000004
 20
-12.05310778112505
 30
0.0
 11
-16.25
 21
-11.93763772728687
 31
0.0
1001
AcDbBlockRepETag
1070
     1
1071
       28
1005
113
  0
ARC
  5
114
330
F4
100
AcDbEntity
  8
0
 48
0.2
100
AcDbCircle
 10
-17.75
 20
-9.33956151593361
 30
0.0
 40
2.999999999999901
100
AcDbArc
 50
300.0000000000011
 51
356.1272041472167
1001
AcDbBlockRepETag
1070
     1
1071
       29
1005
114
  0
ARC
  5
115
330
F4
100
AcDbEntity
  8
0
 48
0.2
100
AcDbCircle
 10
-12.76141769915557
 20
-9.677269418864739
 30
0.0
 40
2.000000000000105
100
AcDbArc
 50
120.000188601096
 51
176.1272041472187
1001
AcDbBlockRepETag
1070
     1
1071
       30
1005
115
  0
LINE
  5
116
330
F4
100
AcDbEntity
  8
0
 48
0.2
100
AcDbLine
 10
0.0
 20
1.010359130757024
 30
0.0
 11
0.0
 21
11.97348486100884
 31
0.0
1001
AcDbBlockRepETag
1070
     1
1071
       31
1005
116
  0
LINE
  5
117
330
F4
100
AcDbEntity
  8
0
 48
0.2
100
AcDbLine
 10
-1.25
 20
11.308141571296
 30
0.0
 11
-1.25
 21
1.01036297108169
 31
0.0
1001
AcDbBlockRepETag
1070
     1
1071
       32
1005
117
  0
ARC
  5
118
330
F4
100
AcDbEntity
  8
0
 48
0.2
100
AcDbCircle
 10
-1.750000000000113
 20
1.010359130757024
 30
0.0
 40
1.750000000000107
100
AcDbArc
 50
300.0001886010993
 51
0.0000000000037222
1001
AcDbBlockRepETag
1070
     1
1071
       33
1005
118
  0
ARC
  5
119
330
F4
100
AcDbEntity
  8
0
 48
0.2
100
AcDbCircle
 10
-1.749999999999772
 20
1.010362971081804
 30
0.0
 40
0.4999999999997727
100
AcDbArc
 50
299.9999999999829
 51
359.9999999999902
1001
AcDbBlockRepETag
1070
     1
1071
       34
1005
119
  0
ARC
  5
11A
330
F4
100
AcDbEntity
  8
0
 48
0.2
100
AcDbCircle
 10
-2.799999999999954
 20
12.14529946162099
 30
0.0
 40
0.2000000000000551
100
AcDbArc
 50
120.000000000036
 51
180.0000000000488
1001
AcDbBlockRepETag
1070
     1
1071
       35
1005
11A
  0
LINE
  5
11B
330
F4
100
AcDbEntity
  8
0
 48
0.2
100
AcDbLine
 10
-3.0
 20
12.14529946162076
 30
0.0
 11
-3.0
 21
11.1638040039985
 31
0.0
1001
AcDbBlockRepETag
1070
     1
1071
       36
1005
11B
  0
ARC
  5
11C
330
F4
100
AcDbEntity
  8
0
 48
0.2
100
AcDbCircle
 10
-2.800000000000068
 20
11.16380400399856
 30
0.0
 40
0.1999999999999318
100
AcDbArc
 50
180.0000000000081
 51
300.0000000000119
1001
AcDbBlockRepETag
1070
     1
1071
       37
1005
11C
  0
LINE
  5
11D
330
F4
100
AcDbEntity
  8
0
 48
0.2
100
AcDbLine
 10
-2.700000000000045
 20
10.99059892324169
 30
0.0
 11
-1.699999999999818
 21
11.56794919243123
 31
0.0
1001
AcDbBlockRepETag
1070
     1
1071
       38
1005
11D
  0
ARC
  5
11E
330
F4
100
AcDbEntity
  8
0
 48
0.2
100
AcDbCircle
 10
-1.549999999999954
 20
11.308141571296
 30
0.0
 40
0.2999999999998383
100
AcDbArc
 50
0.0
 51
119.9999999999877
1001
AcDbBlockRepETag
1070
     1
1071
       39
1005
11E
  0
ARC
  5
11F
330
F4
100
AcDbEntity
  8
0
 48
0.2
100
AcDbCircle
 10
-0.2999999999999545
 20
13.06892997601892
 30
0.0
 40
0.3000000000000024
100
AcDbArc
 50
179.9999999999565
 51
237.421029607162
1001
AcDbBlockRepETag
1070
     1
1071
       40
1005
11F
  0
LINE
  5
120
330
F4
100
AcDbEntity
  8
0
 48
0.2
100
AcDbLine
 10
-0.5999999999999091
 20
13.06892997601915
 30
0.0
 11
-0.5999999999999091
 21
13.29999999999984
 31
0.0
1001
AcDbBlockRepETag
1070
     1
1071
       41
1005
120
  0
ARC
  5
121
330
F4
100
AcDbEntity
  8
0
 48
0.2
100
AcDbCircle
 10
-0.8000000000000682
 20
13.29999999999984
 30
0.0
 40
0.2000000000001592
100
AcDbArc
 50
0.0
 51
119.9999999999834
1001
AcDbBlockRepETag
1070
     1
1071
       42
1005
121
  0
ENDBLK
  5
122
330
F4
100
AcDbEntity
  8
0
100
AcDbBlockEnd
  0
BLOCK
  5
125
330
123
100
AcDbEntity
  8
0
100
AcDbBlockBegin
  2
P-7021
 70
     0
 10
0.0
 20
0.0
 30
0.0
  3
P-7021
  1

  0
LWPOLYLINE
  5
126
330
123
100
AcDbEntity
  8
0
 48
0.2
100
AcDbPolyline
 90
       27
 70
     1
 43
0.0
 10
-22.99999999999994
 20
-13.18854441470984
 10
-22.99999999999994
 20
-14.68854441470984
 10
-25.5
 20
-14.68854441470984
 10
-25.5
 20
-33.02249843837325
 10
-22.0
 20
-34.0724984383732
 10
-22.0
 20
-35.36973828453159
 42
-0.5023968879034705
 10
-22.25746957711323
 20
-35.5613035415758
 10
-27.0
 20
-34.13854441470988
 10
-26.99999999999994
 20
-9.138544414709883
 10
0.0
 20
-9.138544414709883
 10
0.0
 20
4.361455585290116
 10
1.5
 20
4.361455585290116
 10
1.5
 20
-3.638544414709883
 10
5.0
 20
-3.638544414709883
 42
-1.732050807568568
 10
4.133974596215693
 20
-5.138544414710111
 10
1.5
 20
-5.138544414709883
 10
1.5
 20
-9.138544414709883
 10
6.5
 20
-9.138544414709883
 10
6.5
 20
-11.13854441470988
 10
5.0
 20
-11.13854441470988
 10
5.0
 20
-14.68854441470984
 10
1.0
 20
-14.68854441470984
 10
1.0
 20
-13.18854441470984
 10
3.0
 20
-13.18854441470984
 10
3.0
 20
-11.13854441470988
 10
-24.99999999999995
 20
-11.13854441470988
 10
-24.99999999999989
 20
-13.18854441470984
1001
AcDbBlockRepETag
1070
     1
1071
        0
1005
126
  0
ENDBLK
  5
127
330
123
100
AcDbEntity
  8
0
100
AcDbBlockEnd
  0
BLOCK
  5
12A
330
128
100
AcDbEntity
  8
0
100
AcDbBlockBegin
  2
P-2045
 70
     0
 10
0.0
 20
0.0
 30
0.0
  3
P-2045
  1

  0
LWPOLYLINE
  5
12B
330
128
100
AcDbEntity
  8
0
 48
0.2
100
AcDbPolyline
 90
       35
 70
     1
 43
0.0
 10
-17.40000000000009
 20
12.17085666204866
 10
-17.40000000000009
 20
10.72748098907459
 10
-20.40000000000009
 20
8.995430181505753
 10
-20.40000000000009
 20
18.86543018150575
 10
-19.15000000000009
 20
18.86543018150575
 10
-19.15000000000009
 20
18.66543018150582
 42
0.4142135623730945
 10
-18.85000000000013
 20
18.36543018150576
 10
-4.75
 20
18.36543018150576
 42
-0.4142135623730951
 10
-3.5
 20
17.11543018150576
 10
-3.5
 20
12.26729307395453
 42
0.6068148963145945
 10
-3.02792706909463
 20
12.02154746066776
 10
-0.4720729309053695
 20
13.81117579479246
 42
-0.6068148963145994
 10
0.0
 20
13.5654301815058
 10
0.0
 20
0.0
 10
-13.75
 20
-7.938566201357389
 42
0.249069420173574
 10
-14.74499128917227
 20
-9.529161163776052
 42
-0.2490694201735744
 10
-16.2374782229308
 20
-11.91505360740416
 10
-16.45000000000004
 20
-12.03775311260369
 42
-0.5773502691896115
 10
-16.75
 20
-11.86454803184676
 10
-16.75
 20
-9.670617008926228
 10
-19.15000000000009
 20
-11.05625765498132
 10
-19.15000000000009
 20
-22.16950630903318
 10
-17.40000000000009
 20
-21.15914333795138
 10
-17.40000000000009
 20
-22.60251901092545
 10
-20.40000000000009
 20
-24.33456981849429
 10
-20.40000000000009
 20
-10.33456981849429
 10
-1.25
 20
0.7216878364870354
 10
-1.25
 20
11.74049716088314
 10
-2.783029454561301
 20
10.66705838050188
 42
-0.6068148963145945
 10
-4.75
 20
11.69099843586309
 10
-4.75
 20
16.8154301815058
 42
0.4142135623730951
 10
-5.050000000000181
 20
17.11543018150576
 10
-18.85000000000013
 20
17.11543018150576
 42
0.414213562373096
 10
-19.15000000000009
 20
16.8154301815058
 10
-19.15000000000009
 20
11.16049369096686
1001
AcDbBlockRepETag
1070
     1
1071
        0
1005
12B
  0
ENDBLK
  5
12C
330
128
100
AcDbEntity
  8
0
100
AcDbBlockEnd
  0
BLOCK
  5
12E
330
12D
100
AcDbEntity
  8
0
 48
0.35
100
AcDbBlockBegin
  2
H1202100
 70
     0
 10
0.0
 20
0.0
 30
0.0
  3
H1202100
  1

  0
INSERT
  5
12F
330
12D
100
AcDbEntity
  8
0
  6
HIDDEN
100
AcDbBlockReference
  2
P-4061
 10
22.0
 20
198.7115571166022
 30
0.0
  0
INSERT
  5
130
330
12D
100
AcDbEntity
  8
0
  6
HIDDEN
100
AcDbBlockReference
  2
P-2012
 10
19.99999999999977
 20
113.5515571166021
 30
0.0
  0
LINE
  5
131
330
12D
100
AcDbEntity
  8
018_HIDD
  6
HIDDEN
 48
0.2
100
AcDbLine
 10
28.00000000000387
 20
15.42301270189205
 30
0.0
 11
28.0
 21
194.5769872981078
 31
0.0
  0
LINE
  5
132
330
12D
100
AcDbEntity
  8
0
100
AcDbLine
 10
-4.999999999996134
 20
10.55758252038646
 30
0.0
 11
-5.0
 21
199.0769872981078
 31
0.0
  0
LINE
  5
133
330
12D
100
AcDbEntity
  8
0
100
AcDbLine
 10
23.50000000000386
 20
24.42301270189205
 30
0.0
 11
23.5
 21
185.2115571166022
 31
0.0
  0
INSERT
  5
134
330
12D
100
AcDbEntity
  8
0
100
AcDbBlockReference
  2
P-2016
 10
19.99999999999977
 20
46.89155711660208
 30
0.0
  0
INSERT
  5
135
330
12D
100
AcDbEntity
  8
0
100
AcDbBlockReference
  2
P-7021
 10
22.00000000000386
 20
20.06155711660193
 30
0.0
  0
INSERT
  5
136
330
12D
100
AcDbEntity
  8
0
  6
HIDDEN
100
AcDbBlockReference
  2
P-2012
 10
19.99999999999977
 20
80.22155711660218
 30
0.0
  0
INSERT
  5
137
330
12D
100
AcDbEntity
  8
0
100
AcDbBlockReference
  2
P-7021
 10
22.0
 20
189.9384428833981
 30
0.0
 41
-1.0
 50
180.0
  0
INSERT
  5
138
330
12D
100
AcDbEntity
  8
0
  6
HIDDEN
100
AcDbBlockReference
  2
P-2045
 10
19.99999999999977
 20
180.2115571166022
 30
0.0
  0
INSERT
  5
139
330
12D
100
AcDbEntity
  8
0
  6
HIDDEN
100
AcDbBlockReference
  2
P-2012
 10
19.99999999999977
 20
146.881557116602
 30
0.0
  0
LWPOLYLINE
  5
13A
330
12D
100
AcDbEntity
  8
Defpoints
 48
0.35
100
AcDbPolyline
 90
        3
 70
     0
 43
0.0
 10
0.0
 20
215.0
 10
0.0
 20
210.0
 10
5.0
 20
210.0
  0
LWPOLYLINE
  5
13B
330
12D
100
AcDbEntity
  8
Defpoints
 48
0.35
100
AcDbPolyline
 90
        3
 70
     0
 43
0.0
 10
0.0
 20
-5.0
 10
0.0
 20
0.0
 10
5.0
 20
0.0
  0
ENDBLK
  5
13C
330
12D
100
AcDbEntity
  8
0
 48
0.35
100
AcDbBlockEnd
  0
ENDSEC
  0
SECTION
  2
ENTITIES
  0
INSERT
  5
77
330
37
100
AcDbEntity
  8
0
100
AcDbBlockReference
  2
*U1
 10
-43.32622485381932
 20
0.0
 30
0.0
  0
INSERT
  5
87
330
37
100
AcDbEntity
  8
0
100
AcDbBlockReference
  2
H12004084
 10
6.673775146180673
 20
-0.1298359044644712
 30
0.0
  0
INSERT
  5
98
330
37
100
AcDbEntity
  8
0
100
AcDbBlockReference
  2
H12004090
 10
56.67377514618067
 20
0.0
 30
0.0
  0
INSERT
  5
A8
330
37
100
AcDbEntity
  8
0
100
AcDbBlockReference
  2
H12004095
 10
-42.30592007444681
 20
-96.13720485634861
 30
0.0
  0
INSERT
  5
B8
330
37
100
AcDbEntity
  8
0
100
AcDbBlockReference
  2
H12007053
 10
7.694079925553182
 20
-96.13720485634861
 30
0.0
  0
INSERT
  5
C8
330
37
100
AcDbEntity
  8
0
100
AcDbBlockReference
  2
H12007058
 10
57.69407992555318
 20
-96.13720485634861
 30
0.0
  0
INSERT
  5
144
330
37
100
AcDbEntity
  8
0
100
AcDbBlockReference
  2
H1202100
 10
157.8824145723416
 20
-200.3724848030251
 30
0.0
  0
MTEXT
  5
18B
330
37
100
AcDbEntity
  8
0
100
AcDbMText
 10
-55.21864023815362
 20
30.65262989666531
 30
0.0
 40
3.5
 41
55.59533371545251
 71
     1
 72
     5
  1
H12004080\PEinfassprofil Typ A
 73
     1
 44
1.0
1001
ACAD
1000
MTEXTBEGIN
1070
    73
1070
     1
1070
    44
1040
1.0
1070
    74
1070
     0
1000
MTEXTEND
1000
ACAD_MTEXT_DEFINED_HEIGHT_BEGIN
1070
    46
1040
23.38679808909736
1000
ACAD_MTEXT_DEFINED_HEIGHT_END
  0
MTEXT
  5
191
330
37
100
AcDbEntity
  8
0
100
AcDbMText
 10
-7.4113932663397
 20
30.65262989666531
 30
0.0
 40
3.5
 41
55.59533371545251
 71
     1
 72
     5
  1
H12004084\PEinfassprofil Typ B
 73
     1
 44
1.0
1001
ACAD
1000
MTEXTBEGIN
1070
    73
1070
     1
1070
    44
1040
1.0
1070
    74
1070
     0
1000
MTEXTEND
1000
ACAD_MTEXT_DEFINED_HEIGHT_BEGIN
1070
    46
1040
23.38679808909736
1000
ACAD_MTEXT_DEFINED_HEIGHT_END
  0
MTEXT
  5
192
330
37
100
AcDbEntity
  8
0
100
AcDbMText
 10
42.27840567461555
 20
30.65262989666531
 30
0.0
 40
3.5
 41
55.59533371545251
 71
     1
 72
     5
  1
H12004090\PEinfassprofil Typ C
 73
     1
 44
1.0
1001
ACAD
1000
MTEXTBEGIN
1070
    73
1070
     1
1070
    44
1040
1.0
1070
    74
1070
     0
1000
MTEXTEND
1000
ACAD_MTEXT_DEFINED_HEIGHT_BEGIN
1070
    46
1040
23.38679808909736
1000
ACAD_MTEXT_DEFINED_HEIGHT_END
  0
MTEXT
  5
193
330
37
100
AcDbEntity
  8
0
100
AcDbMText
 10
-57.31137822378139
 20
-65.4845749596833
 30
0.0
 40
3.5
 41
55.59533371545251
 71
     1
 72
     5
  1
H12004095\PEinfassprofil Typ E
 73
     1
 44
1.0
1001
ACAD
1000
MTEXTBEGIN
1070
    73
1070
     1
1070
    44
1040
1.0
1070
    74
1070
     0
1000
MTEXTEND
1000
ACAD_MTEXT_DEFINED_HEIGHT_BEGIN
1070
    46
1040
23.38679808909736
1000
ACAD_MTEXT_DEFINED_HEIGHT_END
  0
MTEXT
  5
194
330
37
100
AcDbEntity
  8
0
100
AcDbMText
 10
-7.806302114420645
 20
-65.4845749596833
 30
0.0
 40
3.5
 41
55.59533371545251
 71
     1
 72
     5
  1
H12007053\PEinfassprofil Typ 2
 73
     1
 44
1.0
1001
ACAD
1000
MTEXTBEGIN
1070
    73
1070
     1
1070
    44
1040
1.0
1070
    74
1070
     0
1000
MTEXTEND
1000
ACAD_MTEXT_DEFINED_HEIGHT_BEGIN
1070
    46
1040
23.38679808909736
1000
ACAD_MTEXT_DEFINED_HEIGHT_END
  0
MTEXT
  5
195
330
37
100
AcDbEntity
  8
0
100
AcDbMText
 10
40.68846746357723
 20
-65.4845749596833
 30
0.0
 40
3.5
 41
55.59533371545251
 71
     1
 72
     5
  1
H12007058\PEinfassprofil Typ 3
 73
     1
 44
1.0
1001
ACAD
1000
MTEXTBEGIN
1070
    73
1070
     1
1070
    44
1040
1.0
1070
    74
1070
     0
1000
MTEXTEND
1000
ACAD_MTEXT_DEFINED_HEIGHT_BEGIN
1070
    46
1040
23.38679808909736
1000
ACAD_MTEXT_DEFINED_HEIGHT_END
  0
MTEXT
  5
196
330
37
100
AcDbEntity
  8
0
100
AcDbMText
 10
144.2200026409081
 20
59.62070045908967
 30
0.0
 40
7.0
 41
111.9503959537285
 71
     1
 72
     5
  1
H1202100\PWetterschutzgitter Typ 411
 73
     1
 44
1.0
1001
ACAD
1000
MTEXTBEGIN
1070
    73
1070
     1
1070
    44
1040
1.0
1070
    74
1070
     0
1000
MTEXTEND
1000
ACAD_MTEXT_DEFINED_HEIGHT_BEGIN
1070
    46
1040
23.38679808909736
1000
ACAD_MTEXT_DEFINED_HEIGHT_END
  0
ENDSEC
  0
SECTION
  2
OBJECTS
  0
DICTIONARY
  5
C
330
0
100
AcDbDictionary
281
     1
  3
ACAD_2007HEADERVARS_RT
350
1D4
  3
ACAD_COLOR
350
30
  3
ACAD_GROUP
350
D
  3
ACAD_LAYOUT
350
2F
  3
ACAD_MATERIAL
350
10
  3
ACAD_MLINESTYLE
350
2C
  3
ACAD_PLOTSETTINGS
350
2E
  3
ACAD_PLOTSTYLENAME
350
E
  3
ACAD_TABLESTYLE
350
31
  3
ACAD_VISUALSTYLE
350
14
  3
AcDbVariableDictionary
350
145
  3
DWGPROPS
350
1D3
  0
DICTIONARY
  5
14A
330
8
100
AcDbDictionary
280
     1
281
     1
  0
DICTIONARY
  5
5F
330
5E
100
AcDbDictionary
280
     1
281
     1
  3
ACAD_ENHANCEDBLOCK
360
60
  3
AcDbDynamicBlockRoundTripPurgePreventer
360
62
  0
DICTIONARY
  5
CA
330
C9
100
AcDbDictionary
280
     1
281
     1
  0
DICTIONARY
  5
CF
330
CE
100
AcDbDictionary
280
     1
281
     1
  0
DICTIONARY
  5
F5
330
F4
100
AcDbDictionary
280
     1
281
     1
  0
DICTIONARY
  5
124
330
123
100
AcDbDictionary
280
     1
281
     1
  0
DICTIONARY
  5
129
330
128
100
AcDbDictionary
280
     1
281
     1
  0
DICTIONARY
  5
1D4
102
{ACAD_REACTORS
330
C
102
}
330
C
100
AcDbDictionary
281
     1
  3
DIMJOGANG
350
1D5
  0
DICTIONARY
  5
30
102
{ACAD_REACTORS
330
C
102
}
330
C
100
AcDbDictionary
281
     1
  0
DICTIONARY
  5
D
102
{ACAD_REACTORS
330
C
102
}
330
C
100
AcDbDictionary
281
     1
  0
DICTIONARY
  5
2F
102
{ACAD_REACTORS
330
C
102
}
330
C
100
AcDbDictionary
281
     1
  3
Layout1
350
36
  3
Layout2
350
3E
  3
Model
350
3A
  0
DICTIONARY
  5
10
102
{ACAD_REACTORS
330
C
102
}
330
C
100
AcDbDictionary
281
     1
  3
ByBlock
350
12
  3
ByLayer
350
11
  3
Global
350
13
  0
DICTIONARY
  5
2C
102
{ACAD_REACTORS
330
C
102
}
330
C
100
AcDbDictionary
281
     1
  3
Standard
350
2D
  0
DICTIONARY
  5
2E
102
{ACAD_REACTORS
330
C
102
}
330
C
100
AcDbDictionary
281
     1
  0
ACDBDICTIONARYWDFLT
  5
E
102
{ACAD_REACTORS
330
C
102
}
330
C
100
AcDbDictionary
281
     1
  3
Normal
350
F
100
AcDbDictionaryWithDefault
340
F
  0
DICTIONARY
  5
31
102
{ACAD_REACTORS
330
C
102
}
330
C
100
AcDbDictionary
281
     1
  3
Standard
350
32
  0
DICTIONARY
  5
14
102
{ACAD_REACTORS
330
C
102
}
330
C
100
AcDbDictionary
281
     1
  3
2dWireframe
350
1A
  3
3D Hidden
350
1C
  3
3dWireframe
350
1B
  3
Basic
350
19
  3
Brighten
350
20
  3
ColorChange
350
24
  3
Conceptual
350
1D
  3
Dim
350
1F
  3
Facepattern
350
23
  3
Flat
350
15
  3
FlatWithEdges
350
16
  3
Gouraud
350
17
  3
GouraudWithEdges
350
18
  3
Linepattern
350
22
  3
Realistic
350
1E
  3
Thicken
350
21
  0
DICTIONARY
  5
145
102
{ACAD_REACTORS
330
C
102
}
330
C
100
AcDbDictionary
281
     1
  3
CTABLESTYLE
350
146
  3
DIMASSOC
350
168
  3
HIDETEXT
350
167
  3
INDEXCTL
350
166
  3
SORTENTS
350
165
  0
XRECORD
  5
1D3
102
{ACAD_REACTORS
330
C
102
}
330
C
100
AcDbXrecord
280
     1
  1
DWGPROPS COOKIE
  2

  3

  4

  6

  7

  8
dober
  9

300
=
301
=
302
=
303
=
304
=
305
=
306
=
307
=
308
=
309
=
 40
0.0847295601851852
 41
2454560.286075289
 42
2454788.62371934
  1

 90
        0
  0
ACAD_EVALUATION_GRAPH
  5
60
102
{ACAD_REACTORS
330
5F
102
}
330
5F
100
AcDbEvalGraph
 96
        1
 97
        1
 91
        0
 93
       32
 95
        1
360
61
 92
       -1
 92
       -1
 92
       -1
 92
       -1
  0
ACDB_DYNAMICBLOCKPURGEPREVENTER_VERSION
  5
62
102
{ACAD_REACTORS
330
5F
102
}
330
5F
100
AcDbDynamicBlockPurgePreventer
 70
     1
  0
XRECORD
  5
1D5
102
{ACAD_REACTORS
330
1D4
102
}
330
1D4
100
AcDbXrecord
280
     1
 40
1.570796326794896
  0
LAYOUT
  5
36
102
{ACAD_XDICTIONARY
360
1DE
102
}
102
{ACAD_REACTORS
330
2F
102
}
330
2F
100
AcDbPlotSettings
  1

  2
HP-5100
  4

  6

 40
0.0
 41
0.0
 42
0.0
 43
0.0
 44
0.0
 45
0.0
 46
0.0
 47
0.0
 48
0.0
 49
0.0
140
0.0
141
0.0
142
1.0
143
1.0
 70
   688
 72
     0
 73
     0
 74
     5
  7

 75
    16
147
1.0
148
0.0
149
0.0
100
AcDbLayout
  1
Layout1
 70
     1
 71
     1
 10
0.0
 20
0.0
 11
420.0
 21
297.0
 12
0.0
 22
0.0
 32
0.0
 14
1.000000000000000E+20
 24
1.000000000000000E+20
 34
1.000000000000000E+20
 15
-1.000000000000000E+20
 25
-1.000000000000000E+20
 35
-1.000000000000000E+20
146
0.0
 13
0.0
 23
0.0
 33
0.0
 16
1.0
 26
0.0
 36
0.0
 17
0.0
 27
1.0
 37
0.0
 76
     0
330
33
  0
LAYOUT
  5
3E
102
{ACAD_XDICTIONARY
360
1E2
102
}
102
{ACAD_REACTORS
330
2F
102
}
330
2F
100
AcDbPlotSettings
  1

  2
HP-5100
  4

  6

 40
0.0
 41
0.0
 42
0.0
 43
0.0
 44
0.0
 45
0.0
 46
0.0
 47
0.0
 48
0.0
 49
0.0
140
0.0
141
0.0
142
1.0
143
1.0
 70
   688
 72
     0
 73
     0
 74
     5
  7

 75
    16
147
1.0
148
0.0
149
0.0
100
AcDbLayout
  1
Layout2
 70
     1
 71
     2
 10
0.0
 20
0.0
 11
12.0
 21
9.0
 12
0.0
 22
0.0
 32
0.0
 14
0.0
 24
0.0
 34
0.0
 15
0.0
 25
0.0
 35
0.0
146
0.0
 13
0.0
 23
0.0
 33
0.0
 16
1.0
 26
0.0
 36
0.0
 17
0.0
 27
1.0
 37
0.0
 76
     0
330
3B
  0
LAYOUT
  5
3A
102
{ACAD_XDICTIONARY
360
1E0
102
}
102
{ACAD_REACTORS
330
2F
102
}
330
2F
100
AcDbPlotSettings
  1

  2
HP-5100
  4

  6

 40
0.0
 41
0.0
 42
0.0
 43
0.0
 44
0.0
 45
0.0
 46
0.0
 47
0.0
 48
0.0
 49
0.0
140
0.0
141
0.0
142
1.0
143
1.0
 70
  1712
 72
     0
 73
     0
 74
     0
  7

 75
     0
147
1.0
148
0.0
149
0.0
100
AcDbLayout
  1
Model
 70
     1
 71
     0
 10
0.0
 20
0.0
 11
12.0
 21
9.0
 12
0.0
 22
0.0
 32
0.0
 14
0.0
 24
0.0
 34
0.0
 15
0.0
 25
0.0
 35
0.0
146
0.0
 13
0.0
 23
0.0
 33
0.0
 16
1.0
 26
0.0
 36
0.0
 17
0.0
 27
1.0
 37
0.0
 76
     0
330
37
331
28
  0
MATERIAL
  5
12
102
{ACAD_XDICTIONARY
360
1D8
102
}
102
{ACAD_REACTORS
330
10
102
}
330
10
100
AcDbMaterial
  1
ByBlock
  0
MATERIAL
  5
11
102
{ACAD_XDICTIONARY
360
1D6
102
}
102
{ACAD_REACTORS
330
10
102
}
330
10
100
AcDbMaterial
  1
ByLayer
  0
MATERIAL
  5
13
102
{ACAD_XDICTIONARY
360
1DA
102
}
102
{ACAD_REACTORS
330
10
102
}
330
10
100
AcDbMaterial
  1
Global
  0
MLINESTYLE
  5
2D
102
{ACAD_REACTORS
330
2C
102
}
330
2C
100
AcDbMlineStyle
  2
STANDARD
 70
     0
  3

 62
   256
 51
90.0
 52
90.0
 71
     2
 49
0.5
 62
   256
  6
BYLAYER
 49
-0.5
 62
   256
  6
BYLAYER
  0
ACDBPLACEHOLDER
  5
F
102
{ACAD_REACTORS
330
E
102
}
330
E
  0
TABLESTYLE
  5
32
102
{ACAD_XDICTIONARY
360
1DC
102
}
102
{ACAD_REACTORS
330
31
102
}
330
31
100
AcDbTableStyle
  3
Standard
 70
     0
 71
     0
 40
1.5
 41
1.5
280
     0
281
     0
  7
Standard
140
4.5
170
     2
 62
     0
 63
     7
283
     0
274
    -2
284
     1
 64
     0
275
    -2
285
     1
 65
     0
276
    -2
286
     1
 66
     0
277
    -2
287
     1
 67
     0
278
    -2
288
     1
 68
     0
279
    -2
289
     1
 69
     0
  7
Standard
140
6.0
170
     5
 62
     0
 63
     7
283
     0
274
    -2
284
     1
 64
     0
275
    -2
285
     1
 65
     0
276
    -2
286
     1
 66
     0
277
    -2
287
     1
 67
     0
278
    -2
288
     1
 68
     0
279
    -2
289
     1
 69
     0
  7
Standard
140
4.5
170
     5
 62
     0
 63
     7
283
     0
274
    -2
284
     1
 64
     0
275
    -2
285
     1
 65
     0
276
    -2
286
     1
 66
     0
277
    -2
287
     1
 67
     0
278
    -2
288
     1
 68
     0
279
    -2
289
     1
 69
     0
  0
VISUALSTYLE
  5
1A
102
{ACAD_REACTORS
330
14
102
}
330
14
100
AcDbVisualStyle
  2
2dWireframe
 70
     4
 71
     0
 72
     2
 73
     0
 90
        0
 40
-0.6
 41
-30.0
 62
     5
 63
     7
 74
     1
 91
        4
 64
     7
 65
   257
 75
     1
175
     1
 42
1.0
 92
        0
 66
   257
 43
1.0
 76
     1
 77
     6
 78
     2
 67
     7
 79
     5
170
     0
171
     0
290
     0
174
     0
 93
        1
 44
0.0
173
     0
291
     0
 45
0.0
1001
ACAD
1000
AcDbSavedByObjectVersion
1070
     0
  0
VISUALSTYLE
  5
1C
102
{ACAD_REACTORS
330
14
102
}
330
14
100
AcDbVisualStyle
  2
3D Hidden
 70
     6
 71
     1
 72
     2
 73
     2
 90
        0
 40
-0.6
 41
-30.0
 62
     5
 63
     7
 74
     2
 91
        2
 64
     7
 65
   257
 75
     2
175
     1
 42
40.0
 92
        0
 66
   257
 43
1.0
 76
     1
 77
     6
 78
     2
 67
     7
 79
     3
170
     0
171
     0
290
     0
174
     0
 93
        1
 44
0.0
173
     0
291
     0
 45
0.0
1001
ACAD
1000
AcDbSavedByObjectVersion
1070
     0
  0
VISUALSTYLE
  5
1B
102
{ACAD_REACTORS
330
14
102
}
330
14
100
AcDbVisualStyle
  2
3dWireframe
 70
     5
 71
     0
 72
     2
 73
     0
 90
        0
 40
-0.6
 41
-30.0
 62
     5
 63
     7
 74
     1
 91
        4
 64
     7
 65
   257
 75
     1
175
     1
 42
1.0
 92
        0
 66
   257
 43
1.0
 76
     1
 77
     6
 78
     2
 67
     7
 79
     5
170
     0
171
     0
290
     0
174
     0
 93
        1
 44
0.0
173
     0
291
     0
 45
0.0
1001
ACAD
1000
AcDbSavedByObjectVersion
1070
     0
  0
VISUALSTYLE
  5
19
102
{ACAD_REACTORS
330
14
102
}
330
14
100
AcDbVisualStyle
  2
Basic
 70
     7
 71
     1
 72
     0
 73
     1
 90
        0
 40
-0.6
 41
-30.0
 62
     5
 63
     7
 74
     0
 91
        4
 64
     7
 65
   257
 75
     1
175
     1
 42
1.0
 92
        8
 66
     7
 43
1.0
 76
     1
 77
     6
 78
     2
 67
     7
 79
     5
170
     0
171
     0
290
     0
174
     0
 93
        1
 44
0.0
173
     0
291
     1
 45
0.0
1001
ACAD
1000
AcDbSavedByObjectVersion
1070
     0
  0
VISUALSTYLE
  5
20
102
{ACAD_REACTORS
330
14
102
}
330
14
100
AcDbVisualStyle
  2
Brighten
 70
    12
 71
     2
 72
     2
 73
     0
 90
        0
 40
-0.6
 41
-30.0
 62
     5
 63
     7
 74
     1
 91
        4
 64
     7
 65
   257
 75
     1
175
     1
 42
1.0
 92
        8
 66
     7
 43
1.0
 76
     1
 77
     6
 78
     2
 67
     7
 79
     5
170
     0
171
     0
290
     0
174
     0
 93
        1
 44
50.0
173
     0
291
     1
 45
0.0
1001
ACAD
1000
AcDbSavedByObjectVersion
1070
     0
  0
VISUALSTYLE
  5
24
102
{ACAD_REACTORS
330
14
102
}
330
14
100
AcDbVisualStyle
  2
ColorChange
 70
    16
 71
     2
 72
     2
 73
     3
 90
        0
 40
-0.6
 41
-30.0
 62
     5
 63
     8
 74
     1
 91
        4
 64
     7
 65
   257
 75
     1
175
     1
 42
1.0
 92
        8
 66
     8
 43
1.0
 76
     1
 77
     6
 78
     2
 67
     7
 79
     5
170
     0
171
     0
290
     0
174
     0
 93
        1
 44
0.0
173
     0
291
     1
 45
0.0
1001
ACAD
1000
AcDbSavedByObjectVersion
1070
     0
  0
VISUALSTYLE
  5
1D
102
{ACAD_REACTORS
330
14
102
}
330
14
100
AcDbVisualStyle
  2
Conceptual
 70
     9
 71
     3
 72
     2
 73
     0
 90
        0
 40
-0.6
 41
-30.0
 62
     5
 63
     7
 74
     2
 91
        2
 64
     7
 65
   257
 75
     1
175
     1
 42
40.0
 92
        8
 66
     7
 43
1.0
 76
     1
 77
     6
 78
     2
 67
     7
 79
     3
170
     0
171
     0
290
     0
174
     0
 93
        1
 44
0.0
173
     0
291
     0
 45
0.0
1001
ACAD
1000
AcDbSavedByObjectVersion
1070
     0
  0
VISUALSTYLE
  5
1F
102
{ACAD_REACTORS
330
14
102
}
330
14
100
AcDbVisualStyle
  2
Dim
 70
    11
 71
     2
 72
     2
 73
     0
 90
        0
 40
-0.6
 41
-30.0
 62
     5
 63
     7
 74
     1
 91
        4
 64
     7
 65
   257
 75
     1
175
     1
 42
1.0
 92
        8
 66
     7
 43
1.0
 76
     1
 77
     6
 78
     2
 67
     7
 79
     5
170
     0
171
     0
290
     0
174
     0
 93
        1
 44
-50.0
173
     0
291
     1
 45
0.0
1001
ACAD
1000
AcDbSavedByObjectVersion
1070
     0
  0
VISUALSTYLE
  5
23
102
{ACAD_REACTORS
330
14
102
}
330
14
100
AcDbVisualStyle
  2
Facepattern
 70
    15
 71
     2
 72
     2
 73
     0
 90
        0
 40
-0.6
 41
-30.0
 62
     5
 63
     7
 74
     1
 91
        4
 64
     7
 65
   257
 75
     1
175
     1
 42
1.0
 92
        8
 66
     7
 43
1.0
 76
     1
 77
     6
 78
     2
 67
     7
 79
     5
170
     0
171
     0
290
     0
174
     0
 93
        1
 44
0.0
173
     0
291
     1
 45
0.0
1001
ACAD
1000
AcDbSavedByObjectVersion
1070
     0
  0
VISUALSTYLE
  5
15
102
{ACAD_REACTORS
330
14
102
}
330
14
100
AcDbVisualStyle
  2
Flat
 70
     0
 71
     2
 72
     1
 73
     1
 90
        2
 40
-0.6
 41
30.0
 62
     5
 63
     7
 74
     0
 91
        4
 64
     7
 65
   257
 75
     1
175
     1
 42
1.0
 92
        8
 66
     7
 43
1.0
 76
     1
 77
     6
 78
     2
 67
     7
 79
     5
170
     0
171
     0
290
     0
174
     0
 93
       13
 44
0.0
173
     0
291
     1
 45
0.0
1001
ACAD
1000
AcDbSavedByObjectVersion
1070
     0
  0
VISUALSTYLE
  5
16
102
{ACAD_REACTORS
330
14
102
}
330
14
100
AcDbVisualStyle
  2
FlatWithEdges
 70
     1
 71
     2
 72
     1
 73
     1
 90
        2
 40
-0.6
 41
30.0
 62
     5
 63
     7
 74
     1
 91
        4
 64
     7
 65
   257
 75
     1
175
     1
 42
1.0
 92
        0
 66
   257
 43
1.0
 76
     1
 77
     6
 78
     2
 67
     7
 79
     5
170
     0
171
     0
290
     0
174
     0
 93
       13
 44
0.0
173
     0
291
     1
 45
0.0
1001
ACAD
1000
AcDbSavedByObjectVersion
1070
     0
  0
VISUALSTYLE
  5
17
102
{ACAD_REACTORS
330
14
102
}
330
14
100
AcDbVisualStyle
  2
Gouraud
 70
     2
 71
     2
 72
     2
 73
     1
 90
        2
 40
-0.6
 41
30.0
 62
     5
 63
     7
 74
     0
 91
        4
 64
     7
 65
   257
 75
     1
175
     1
 42
1.0
 92
        0
 66
     7
 43
1.0
 76
     1
 77
     6
 78
     2
 67
     7
 79
     5
170
     0
171
     0
290
     0
174
     0
 93
       13
 44
0.0
173
     0
291
     1
 45
0.0
1001
ACAD
1000
AcDbSavedByObjectVersion
1070
     0
  0
VISUALSTYLE
  5
18
102
{ACAD_REACTORS
330
14
102
}
330
14
100
AcDbVisualStyle
  2
GouraudWithEdges
 70
     3
 71
     2
 72
     2
 73
     1
 90
        2
 40
-0.6
 41
30.0
 62
     5
 63
     7
 74
     1
 91
        4
 64
     7
 65
   257
 75
     1
175
     1
 42
1.0
 92
        0
 66
   257
 43
1.0
 76
     1
 77
     6
 78
     2
 67
     7
 79
     5
170
     0
171
     0
290
     0
174
     0
 93
       13
 44
0.0
173
     0
291
     1
 45
0.0
1001
ACAD
1000
AcDbSavedByObjectVersion
1070
     0
  0
VISUALSTYLE
  5
22
102
{ACAD_REACTORS
330
14
102
}
330
14
100
AcDbVisualStyle
  2
Linepattern
 70
    14
 71
     2
 72
     2
 73
     0
 90
        0
 40
-0.6
 41
-30.0
 62
     5
 63
     7
 74
     1
 91
        4
 64
     7
 65
   257
 75
     7
175
     7
 42
1.0
 92
        8
 66
     7
 43
1.0
 76
     1
 77
     6
 78
     2
 67
     7
 79
     5
170
     0
171
     0
290
     0
174
     0
 93
        1
 44
0.0
173
     0
291
     1
 45
0.0
1001
ACAD
1000
AcDbSavedByObjectVersion
1070
     0
  0
VISUALSTYLE
  5
1E
102
{ACAD_REACTORS
330
14
102
}
330
14
100
AcDbVisualStyle
  2
Realistic
 70
     8
 71
     2
 72
     2
 73
     0
 90
        0
 40
-0.6
 41
-30.0
 62
     5
 63
     7
 74
     1
 91
        0
 64
     7
 65
   257
 75
     1
175
     1
 42
1.0
 92
        8
 66
     8
 43
1.0
 76
     1
 77
     6
 78
     2
 67
     7
 79
     5
170
     0
171
     0
290
     0
174
     0
 93
       13
 44
0.0
173
     0
291
     0
 45
0.0
1001
ACAD
1000
AcDbSavedByObjectVersion
1070
     0
  0
VISUALSTYLE
  5
21
102
{ACAD_REACTORS
330
14
102
}
330
14
100
AcDbVisualStyle
  2
Thicken
 70
    13
 71
     2
 72
     2
 73
     0
 90
        0
 40
-0.6
 41
-30.0
 62
     5
 63
     7
 74
     1
 91
        4
 64
     7
 65
   257
 75
     1
175
     1
 42
1.0
 92
       12
 66
     7
 43
1.0
 76
     1
 77
     6
 78
     2
 67
     7
 79
     5
170
     0
171
     0
290
     0
174
     0
 93
        1
 44
0.0
173
     0
291
     1
 45
0.0
1001
ACAD
1000
AcDbSavedByObjectVersion
1070
     0
  0
DICTIONARYVAR
  5
146
102
{ACAD_REACTORS
330
145
102
}
330
145
100
DictionaryVariables
280
     0
  1
STANDARD
  0
DICTIONARYVAR
  5
168
102
{ACAD_REACTORS
330
145
102
}
330
145
100
DictionaryVariables
280
     0
  1
2
  0
DICTIONARYVAR
  5
167
102
{ACAD_REACTORS
330
145
102
}
330
145
100
DictionaryVariables
280
     0
  1
1
  0
DICTIONARYVAR
  5
166
102
{ACAD_REACTORS
330
145
102
}
330
145
100
DictionaryVariables
280
     0
  1
0
  0
DICTIONARYVAR
  5
165
102
{ACAD_REACTORS
330
145
102
}
330
145
100
DictionaryVariables
280
     0
  1
127
  0
BLOCKBASEPOINTPARAMETER
  5
61
330
60
100
AcDbEvalExpr
 90
        1
 98
       27
 99
        2
100
AcDbBlockElement
300
Basispunkt
 98
       25
 99
      104
1071
        0
100
AcDbBlockParameter
280
     1
281
     0
100
AcDbBlock1PtParameter
1010
0.0
1020
8.999999999999985
1030
0.0
 93
        0
170
     0
171
     0
100
AcDbBlockBasepointParameter
1011
0.0
1021
0.0
1031
0.0
1012
0.0
1022
0.0
1032
0.0
  0
DICTIONARY
  5
1DE
330
36
100
AcDbDictionary
280
     1
281
     1
  3
ACAD_XREC_ROUNDTRIP
360
1DF
  0
DICTIONARY
  5
1E2
330
3E
100
AcDbDictionary
280
     1
281
     1
  3
ACAD_XREC_ROUNDTRIP
360
1E3
  0
DICTIONARY
  5
1E0
330
3A
100
AcDbDictionary
280
     1
281
     1
  3
ACAD_XREC_ROUNDTRIP
360
1E1
  0
DICTIONARY
  5
1D8
330
12
100
AcDbDictionary
280
     1
281
     1
  3
ACAD_XREC_ROUNDTRIP
360
1D9
  0
DICTIONARY
  5
1D6
330
11
100
AcDbDictionary
280
     1
281
     1
  3
ACAD_XREC_ROUNDTRIP
360
1D7
  0
DICTIONARY
  5
1DA
330
13
100
AcDbDictionary
280
     1
281
     1
  3
ACAD_XREC_ROUNDTRIP
360
1DB
  0
DICTIONARY
  5
1DC
330
32
100
AcDbDictionary
280
     1
281
     1
  3
ACAD_XREC_ROUNDTRIP
360
1DD
  0
XRECORD
  5
1DF
102
{ACAD_REACTORS
330
1DE
102
}
330
1DE
100
AcDbXrecord
280
     1
102
SHADEPLOT
 70
     0
102
SHADEPLOTRESLEVEL
 70
     2
102
SHADEPLOTCUSTOMDPI
 70
   300
  0
XRECORD
  5
1E3
102
{ACAD_REACTORS
330
1E2
102
}
330
1E2
100
AcDbXrecord
280
     1
102
SHADEPLOT
 70
     0
102
SHADEPLOTRESLEVEL
 70
     2
102
SHADEPLOTCUSTOMDPI
 70
   300
  0
XRECORD
  5
1E1
102
{ACAD_REACTORS
330
1E0
102
}
330
1E0
100
AcDbXrecord
280
     1
102
SHADEPLOT
 70
     0
102
SHADEPLOTRESLEVEL
 70
     2
102
SHADEPLOTCUSTOMDPI
 70
   300
  0
XRECORD
  5
1D9
102
{ACAD_REACTORS
330
1D8
102
}
330
1D8
100
AcDbXrecord
280
     1
102
MATERIAL
148
0.0
149
0.0
149
0.0
 93
        0
 94
       63
282
     0
 72
     1
 77
     1
171
     1
175
     1
179
     1
273
     0
  0
XRECORD
  5
1D7
102
{ACAD_REACTORS
330
1D6
102
}
330
1D6
100
AcDbXrecord
280
     1
102
MATERIAL
148
0.0
149
0.0
149
0.0
 93
        0
 94
       63
282
     0
 72
     1
 77
     1
171
     1
175
     1
179
     1
273
     0
  0
XRECORD
  5
1DB
102
{ACAD_REACTORS
330
1DA
102
}
330
1DA
100
AcDbXrecord
280
     1
102
MATERIAL
148
0.0
149
0.0
149
0.0
 93
        0
 94
       63
282
     0
 72
     1
 77
     1
171
     1
175
     1
179
     1
273
     0
  0
XRECORD
  5
1DD
102
{ACAD_REACTORS
330
1DC
102
}
330
1DC
100
AcDbXrecord
280
     1
102
ACAD_ROUNDTRIP_PRE2007_TABLESTYLE
 90
      512
 91
        0
  1

 92
      512
 93
        0
  2

 94
      512
 95
        0
  3

  0
ENDSEC
  0
EOF
